tablatura akordi besedilo   Mi plešemo (tab) v2

trzalica.com besedilo akordi tablature

Legenda ikon:


Pogoji uporabe.    

besedilo z akordi besedilo z akordi
tablature tablatura (tabulatura)
tablature tablatura za bas
tablature videolekcija

GuitarPro GutarPro (GP)
note Note (v PDF formatu)
sibelius Sibelius (SIB), itd.
..

Oglej si še:

tablatura akordi besedilo  Mi plešemo (tab) v1
tablatura akordi besedilo  Mi plešemo (tab) v3
  Mi plešemo (gp)
  Mi plešemo - solo (gp)
videolekcija Mi plešemo

trzalica bar

Transkripcija: Barrichello


INTRO:
e|---------------------------------------------
H|-7-5---7-5------55--8-7-5-8-7-5--57-7-7-57---
G|-----7-----7--7------------------------------
D|---------------------------------------------
A|---------------------------------------------
E|---------------------------------------------


e|---------------------------------
H|-7-5---7-5------55--8-7-5-8-7-5--
G|-----7-----7--7------------------
D|---------------------------------
A|---------------------------------
E|---------------------------------



SOLO:
e|--------------------------|-----------------------------------|
H|--------------------------|-----------------------------------|
G|--------7-9b-9-7--9b-9----|-----------------------------------|
D|-7--7h9----------------7--|-7-5-4-5-7-5---------4-------4-----|
A|--------------------------|-------------5--/5-5---7-5-----7---|
E|--------------------------|---------------------------------5-|
 |           2x             |                  2x               |

e|-------------------------------------|-----------------------------------|
H|---------------------10-8-7-8-10-7---|-----------------------------------|
G|-7v-9b-9-7v-9b-9-7v----------------7-|-----------------------------------|
D|-------------------------------------|-7-5-4-5-7-5---------4-------4-----|
A|-------------------------------------|-------------5--/5-5---7-5-----7---|
E|-------------------------------------|---------------------------------5-|
 |                 2x                  |                  2x               |

AKORDI:
  D  G  A
e-2--3--5--
H-3--3--5--
G-2--4--6--
D-0--5--7--
A----5--7--
E----3--5--

BASS:
G|---------------------------------|
D|---4-7-4---4-7-4-----------------|
A|-5-------5---------2-5-2---4-7---|
E|-----------------3-------5-----5-|

 

trzalica posnetek bar

trzalica bar

Dodaj komentar


Varnostna koda
Osveži

  Iskanje

config