tablatura akordi besedilo   Ti nisi ta (tab)

trzalica.com besedilo akordi tablature

Legenda ikon:


Pogoji uporabe.    

besedilo z akordi besedilo z akordi
tablature tablatura (tabulatura)
tablature tablatura za bas
tablature videolekcija

GuitarPro GutarPro (GP)
note Note (v PDF formatu)
sibelius Sibelius (SIB), itd.
..

Vse verzije te pesmi:    besedilo z akordi  Ti nisi ta       Ti nisi ta (tab)       Ti nisi ta - solo (gp)

trzalica bar

 
 Izvajalec: ..................... Mi2
 Skladba: ....................... Ti nisi ta
 Transkripcijo izdelali ......... Cjatar, Zeus, AliAs
 Domača stran transkripcije ..... www.trzalica.com
 
================================================================================
 
Prijem akordov:
Asus2 - X 0 2 2 0 0
E     - 0 2 2 1 0 0
C#m   - X 4 6 6 5 X
A     - X 0 2 2 2 0
D     - X 5 7 7 7 5
E*    - 4 2 2 1 0 0
Dadd9 - 2 0 0 2 3 0
F     - 1 3 3 2 1 1
G     - 3 5 5 4 3 3
 
INTRO:
 
kar je v oklepaju, je samo v prvi ponovitvi.
 
   Asus2        H7add11      Dsus2add13   Asus2
e|---------0------------0------------0-------------|
B|-0---0--------0---0--------0---0--------0----(00)|
G|-2--2--2------2--2--2------2--2--2------2----(22)|  
D|-2------------1------------0------------2----(22)|
A|-0------------2------------0------------0----(00)|
E|-------------------------------------------------|
 
 
VERZ:
 
Asus2                      E
Padel je poslednji zastor najine tragikomedije
   C#m                        D
namesto rož le mrtva riba in fotodraž iz Azije.
A                             E
Preveč besed, premalo dotikov, napačnih zvezd, ponesrečenih trikov,
C#m                               D                              Asus2
prehitrih gest, prepoznih umikov mojih poti in tvojih mejnikov.
 
 
REFREN:
 
A
Ti nisi ta, ki prebere moj znak,
E*
ti nisi ta, ki ustavi moj vlak.
Dadd9
Ti nisi ta, ki odpihne moj prah,
F              G
ti nisi ta, ki prežene moj strah.
 
 
PREHOD:
 
   Asus2        H7add11      Dsus2add13   Asus2
e|---------0------------0------------0-------------|
B|-0---0--------0---0--------0---0--------0-----00-|
G|-2--2--2------2--2--2------2--2--2------2-----22-|  
D|-2------------1------------0------------2-----22-|
A|-0------------2------------0------------0-----00-|
E|-------------------------------------------------|
 
 
VERZ (zaporedje akordov je enako, kot v prvem verzu):
 
c,
kompas kaže staro smer,
vodnjak želja ostaja prazen,
konec vojne, živel mir.
Počasi zbujam se iz teme, tako preprosto je spet vse,
ob enem žalosten in srečen da mi vseeno je za te.
 
 
REFREN...
 
 
SOLO:
 
Akordi:
(Asus2  H7add11  Dsus2add13  F  G  )  2x
 A
 
Solo:
e||----------------------------------|--------------------||
H||----------------------------------|--------------------||
G||----6-7---9--11-9-11br--9-7--6----|--------------------||
D||-9b-----7----------------------7--|-10---9---9h10p9-7--||
A||----------------------------------|--------------------||
E||----------------------------------|--------------------||
 
 
MOST:
 
A                             E*
Preveč besed, premalo dotikov, napačnih zvezd, ponesrečenih trikov,
C#m                               D
prehitrih gest, prepoznih umikov mojih poti in tvojih mejnikov.
 
 
REFREN...
 
 
SOLO...
 
(Asus2  H7add11  Dsus2add13  F  G  )  3x
 A
 
e||----------------------------------|--------------------||
H||----------------------------------|--------------------||
G||----6-7---9--11-9-11br--9-7--6----|--------------------||
D||-9b-----7----------------------7--|-10---9---9h10p9-7--||
A||----------------------------------|--------------------||
E||----------------------------------|--------------------||
 
 

trzalica bartrzalica bar Dobre vile debatirajo o teh akordih na Forumu
trzalica bar

 

Dodaj komentar


Varnostna koda
Osveži

  Iskanje

config