tablatura akordi besedilo   Sve ove godine (tab)

trzalica.com besedilo akordi tablature

Legenda ikon:


Pogoji uporabe.    

besedilo z akordi besedilo z akordi
tablature tablatura (tabulatura)
tablature tablatura za bas
tablature videolekcija

GuitarPro GutarPro (GP)
note Note (v PDF formatu)
sibelius Sibelius (SIB), itd.
..

Vse verzije te pesmi:      Indexi - Sve ove godine (tab)       Indexi - Sve ove godine (gp)       Mi2 - Sve ove godine (tab)

trzalica bar

 
 _______________________________________
|                                       |
| IZVAJALEC: ...................... Mi2 |
| PESEM: ............... Sve ove godine |
| ALBUM: ........... Dobrodošli na dvor |
|_______________________________________|
|                                       |
|   Besedilo z akordi in tablatura      |
|   Transkripcija: Cjatar, AliAs        |
|_______________________________________|
 
UVOD:
 
e|-------------------------|----------|
H|-------------------------|----------|
G|-------------------------|----------|  < Bas prenesen na kitaro
D|-(5)--3-5----5---0-3-4-5-|--3-5-----| 
A|-----------3-------------|-------3--|
E|-------------------------|----------|
 
   C5 G5 A5                            D5         C5       G5
e|--------------------------------------------7\5-------------|
H|------------------------------------------------------7\5---|
G|-5--------------------------------------5/7-------5/7-------| 
D|-5--5-------------------------------------------------------| 
A|-3--5--------------5-5-5-7-7-7-5-5--------------------------|
E|----3--5-555-8-8-8-----------------8------------------------|
 
   A5                            D5
e|--------------------------------------------------------|
H|--------------------------------------10\7-------10\6---|
G|----------------------------------5/7--------5/7--------| 
D|--------------------------------------------------------| 
A|-------------5-5-5-7-7-7-5-5----------------------------|
E|-5-555-8-8-8-----------------8--------------------------|
 
   A5                                                      C5 G5 A5
e|---------------------------------------------------------------------|
H|---------------------------------------------------------------------|
G|---------------------------------------------------------5-----------| 
D|---------------------------------------------------------5--5--7-----| 
A|-------------5-5-5-7-7-7-5-5-----------------5-5-5-7-7-7-3--5--7-----|
E|-5-555-8-8-8-----------------8---5-555-8-8-8----------------3--5-----|
 
 
KITICA:
 
Am
Jedna mala pjegava plava
D
Ne da mi mira
G               C                G
Kad je sretnem hoče nešto da mi da
 
*Prehod: G5 G#5 A5
 
Am
Kad je pitam što bi mi dala
D
Neče da kaže
G                   C              G
Samo klimne glavom kao da bi dala sve
 
*Prehod: G5 G#5 A5
 
A5                  A5 G5 F5
Idi mala, idi što prije
                          F5 E5 D5
Još si mala. vrijeme ti nije
                               G*
Bježi mala prije no što padne noč
 
   G*
e|-----------------------------------|
H|-----------------------------------|
G|-----------------------------------|
D|-------------------------0-2-3-5---|
A|-------------2-2-2-3-3-3-----------|
E|-3-3-3-5-5-5-----------------------|
 
 
 
REFREN:
 
         G5    C5     G5               C5
      Sve ove godine dala bi za jednu noč
         G5               C5
      Al mene nikad ne bi imala
      G5                  C5
      Jer ja moram drugoj poč
         G5    C5     G5               C5
      Sve ove godine dala bi za jednu noč
         G5               C5
      Al mene nikad ne bi imala
      G5                  C5  (C5 G5 A5)
      Jer ja moram drugoj poč
 
 
e|-5------5------|
H|----5------5---|
G|------5------5-|  < 3x
D|---------------|
A|---------------|
E|---------------|
 
 
 
KITICA:
 
Jedna mala pjegava plava
Ne da mi mira
Kad je sretnem hoče nešto da mi da
 
Kad je pitam što bi mi dala
Neče da kaže
Samo klimne glavom kao da bi dala sve
 
Idi mala, idi što prije
Još si mala. vrijeme ti nije
Bježi mala prije no što padne noč
 
 
REFREN:
 
      Sve ove godine dala bi za jednu noč
      Al mene nikad ne bi imala
      Jer ja moram drugoj poč
 
      Sve ove godine dala bi za jednu noč
      Al mene nikad ne bi imala
      Jer ja moram drugoj poč
 
 
SOLO:
 
   C5 G5 A5                            D          C        G
e|--------------------------------------------7\5-------7\5---|
H|------------------------------------------------------------|
G|-5--------------------------------------5/7-------5/7-------| 
D|-5--5-------------------------------------------------------| 
A|-3--5--------------5-5-5-7-7-7-5-5--------------------------|
E|----3--5-555-8-8-8-----------------8------------------------|
 
   Am                            D              Dm
e|--------------------------------------7\5-------7\5---|
H|------------------------------------------------------|
G|----------------------------------5/7-------5/7-------| 
D|------------------------------------------------------| 
A|-------------5-5-5-7-7-7-5-5--------------------------|
E|-5-555-8-8-8-----------------8------------------------|
 
   A5                    G5                     A5                    C5            D5        A5
e|-------7\5-------7\5----------7\5-------7\5---------7\5-------7\5----------7\5-------------------------|
H|-------------------------------------------------------------------------------------10\7--------------|
G|---5/7-------5/7----------5/7-------5/7---------5/7-------5/7----------5/7-------5/7-------------------|
D|--------------------------------------------------------------------------------------------7----------|
A|--------------------------------------------------------------------------------------------7----------|
E|--------------------------------------------------------------------------------------------5----------|
 
 
 
Am                  Am G  F
Idi mala, idi što prije
                          F  E  D 
Još si mala. vrijeme ti nije
                               G*
Bježi mala prije no što padne noč
 
 
REFREN:
 
         G5    C5     G5               C5
      Sve ove godine dala bi za jednu noč
         G5               C5
      Al mene nikad ne bi imala
      G5                  C5
      Jer ja moram drugoj poč
         G5    C5     G5               C5
      Sve ove godine dala bi za jednu noč
         G5               C5
      Al mene nikad ne bi imala
      G5
      Jer ja moram drugoj,
      G5
      Jer ja moram drugoj,
      G5
      Jer ja moram drugoj,
 
         G5    C5     G5               C5
      Sve ove godine dala bi za jednu noč
         G5               C5
      Al mene nikad ne bi imala
      G5                  C5  G5 G#5 A5
      Jer ja moram drugoj poč
 
 
 

trzalica bartrzalica bar

Dodaj komentar


Varnostna koda
Osveži

  Iskanje

config