tablatura akordi besedilo   Heroj ulice (tab)

trzalica.com besedilo akordi tablature

Legenda ikon:


Pogoji uporabe.    

besedilo z akordi besedilo z akordi
tablature tablatura (tabulatura)
tablature tablatura za bas
tablature videolekcija

GuitarPro GutarPro (GP)
note Note (v PDF formatu)
sibelius Sibelius (SIB), itd.
..

Prljavo Kazalište - Heroj ulice

Intro & Verse
-------------
    Am                F/C               G               
e-|-----------------|-----------------|-----------------|-
B-|-------0h1-------|-------0h1-------|-------0h3-------|-
D-|-2--2------2-----|-2--2------2-----|----0------0-----|-
G-|-2-----------2---|-3-----------2---|-0-----------0---|-
A-|-0-------------0-|-3-------------3-|-2-------------2-|-
E-|-----------------|-----------------|-3---------------|-

    C       G/B
e-|-----------------|-
B-|-------1---------|-
D-|-----0-----------|-
G-|---2-------------|-
A-|-3-------2h3-2-2-|-
E-|-----------------|-

Uvijek sam želio
Biti heroj
Ne kao James Bond
Prokleti tajni agent

Želio sam biti
Heroj ulice
Bar jedan dan
Djevojko, bar jedan sat

Solo 1
------

e-|-----------|----------|---------------|------------|-----------|-
B-|-----------|----------|-----------8-8-|------------|-----------|-
D-|--5--4-5---|-5--4-5---|-7-5-7-7b9-----|-b7p5-7p5\4-|-5--4-5----|-
G-|---------7-|--------7-|---------------|------------|---------7-|-
A-|-----------|----------|---------------|------------|-----------|-
E-|-----------|----------|---------------|------------|-----------|-

e-|------------|--------|-
B-|------------|--------|-
D-|-5--4-5---7-|-5-7--5-|-
G-|--------7---|--------|-
A-|------------|--------|-
E-|------------|--------|-

Uvijek sam sanjao
Da je neko drugo vrijeme
Ja bih bio Romeo
A ti Juliet

Uvijek sam sanjao
Da sam ja heroj
Koji če promjeniti
Eitavi svijet

    Am                F/C               G/B
e-|-----------------|-----------------|-----------------|-
B-|-----------------|-1-1-1-1-1-1-1-1-|-----------------|-
D-|-2-2-2-2-2-2-2-2-|-2-2-2-2-2-2-2-2-|-0-0-0-0-0-0-0-0-|-
G-|-2-2-2-2-2-2-2-2-|-2-2-2-2-2-2-2-2-|-0-0-0-0-0-0-0-0-|-
A-|-0-0-0-0-0-0-0-0-|-3-3-3-3-3-3-3-3-|-2-2-2-2-2-2-2-2-|-
E-|-----------------|-----------------|-----------------|-

    C       G/B
e-|-----------------|-
B-|-----------------|-
D-|-0-0-0-0-0---0---|-
G-|-2-2-2-2-2---0---|-
A-|-3-3-3-3-3---2---|-
E-|-----------------|-

Prisiljen da razmišljam
Ja shvatio sam sve
Nisam rođen da budem heroj
O ne ne ne

Solo 2
------

e-|-12----12----12-12----12-12--------------------------15-15-15--------
B-|-13----13----13-13----13-13----15-13-15--13-15-15b17----------b15-13-
D-|----14----14-------14-------14---------------------------------------
G-|---------------------------------------------------------------------
A-|---------------------------------------------------------------------
E-|---------------------------------------------------------------------

e-|----------------------------------------------------------------------
B-|----------------------------------------------------------------------
D-|-...------------------------------------------------------------------
G-|----------------------------------------------------------------------
A-|----------------------------------------------------------------------
E-|----------------------------------------------------------------------

Uvijek sam želio
Biti heroj
Ne kao James Bond
Prokleti tajni agent

želio sam biti
Heroj ulice
Bar jedan dan
Bar jedan sat

Da je neko drugo vrijeme
Ja bih bio Romeo
A ti Juliet
Ja bih bio Romeo
A ti Juliet

trzalica bartrzalica bar

Dodaj komentar


Varnostna koda
Osveži

  Iskanje

config