tablatura akordi besedilo   Maček pod oknom (tab)

trzalica.com besedilo akordi tablature

Legenda ikon:


Pogoji uporabe.    

besedilo z akordi besedilo z akordi
tablature tablatura (tabulatura)
tablature tablatura za bas
tablature videolekcija

GuitarPro GutarPro (GP)
note Note (v PDF formatu)
sibelius Sibelius (SIB), itd.
..

 Izvajalec: ..................... Zmelkoow
 Skladba: ....................... Maček pod oknom
 Transkripcijo izdelal .......... Posnjak
 Vrsta transkripcije ............ Besedilo z akordi
 Domača stran transkripcije ..... www.trzalica.com

================================================================================================

Zmelkoow - Maček pod oknom

Ti akordi so napisani za standardno uglasitev.
V originalu Zmelkoow najverjetneje uporabljajo pol tona nizjo uglasitev.

Akordi:
F#m:244222
A  :577455   / za ta dva akorda se lahko
D  :x57775   / uporablja tudi odprte prijeme
E  :x79997 

Uvod
------------------------------------------------------------------------------------
------------------------------------------------------------------------------------
------------------------------------------------------------------------------------
------------------------4--4--2-----------------------------------------------------
--4-4-4--4---4--2--4-------------4----2----4-4-4--4--4--4--2--4----5--5--5--4-------
-------------------------------------------------------------------------------5----

Kitica:
F#m               D            A           F#m                 D       A
  tolko časa že sediš na istem mestu, da golobi že mislijo, da si spomenik
  če že nimaš kaj počet, počni to nekje na samem, ker mi zaradi takšnih kot si ti
  spet niso ugodili prošnji, da bi podaljšali dan na 32 ur
  da bi se lahko naspal in v miru pojedu in bil pošten, debel nemški turist


  in če golobi mislijo, da si ptic, to ne pomeni, da si zajebal tudi druge
  za zajebat cel svet moraš bit strašen artist, da bi se stalno pretvarjal, rabiš dosti energije
  in na koncu ugotoviš, da se niti ne splača, ker prej ali slej pride na svetlo, kdo si
  če milijonkrat poskušaš, ti pač enkrat ne rata, tudi največjim facam včasih spodleti

  F#5   D5   A5  x3
  F#5   A5 H5 A5 G#5 A5 G#5  


Refren:
F#5    D5               A5  E        D
  tudi največji frajerji    včasih popušijo,
  tudi največji frajerji    včasih popušijo,
  tudi največji frajerji    včasih popušijo
F#5    D5               A5        E       D          (+zakljucek refrena)  
  tudi največjim frajerjem včasih pade na glavo    klavir



Zakljucek refrena:
  Med pesmijo (prvi refren):
  F#5  C#5  D5  H5  C#5  H---2h3p2---2--- (druga in 
                         G---------4-----  tretja najtanjsa struna)
  F#5  C#5  D5  H5  C#5  A5  H5  A5

  Na koncu pesmi:
  F#5  C#5  D5  H5  C#5  A5  H5  A5  F#m


Prvi solo (po prvi kitici)
/Dve enajstki v oklepaju ponenita, da ko enkrat zapognes (bendas) struno
z devete precke za cel ton, po njej se enkrat udaris, ne da bi jo pred 
tem spustil./
---------------------------------------14-----12-------10-----9------
--7--------10-----9------7-----2-------17^19--15^17----13^15--12^14--
--9^11-----12^14--11^13--9^11--4^6-----------------------------------
---------------------------------------------------------------------
---------------------------------------------------------------------
---------------------------------------------------------------------

--------------------------------------------------------------------------
--2----5----3----2------7-----7----10-----9------7-------9------3----2----
--4^6--7^9--5^7--4^6----9^(11-11)--12^14--11^13--9^11----11^13--5^7--4^6--
--------------------------------------------------------------------------
--------------------------------------------------------------------------
--------------------------------------------------------------------------


Drugi solo
------------------------------------------------------------------------
------------------------------------------------------------------------
------------------------------------------------------------------------
-------------------4--4-4-4-2-------------------------------------------
------------------------------------------------------------5--5--5--4--
--2-2-2---5--4--5----------------0--2--2-2-2---5--4--5--2---------------

-----------------------------------------------------------------------
-----------------------------------------------------------------------
-----------------------------------------------------------------------
----------------------------------------------------------------------
--5--9--12--9--12-^14------------------------------------------------
-----------------------------------------------------------------------
trzalica bartrzalica bar

Dodaj komentar


Varnostna koda
Osveži

  Iskanje

config