tablatura akordi besedilo   Densi Mayalona (tab)

trzalica.com besedilo akordi tablature

Legenda ikon:


Pogoji uporabe.    

besedilo z akordi besedilo z akordi
tablature tablatura (tabulatura)
tablature tablatura za bas
tablature videolekcija

GuitarPro GutarPro (GP)
note Note (v PDF formatu)
sibelius Sibelius (SIB), itd.
..

              ___________________________________________________________
              |  _______________________________________________________  |
              | |                                                       | |
              | | IZVAJALEC: .............. Zmelkoow                    | |
              | | PESEM: .................. Densi Mayalona              | |
              | | ALBUM: .................. Superheroji v akciji        | |
              | | LETO IZIDA: ............. 2001                        | |
              | | DOMAČA STRAN: ........... www.zmelkoow.net            | |
              | |_______________________________________________________| |
              | |                                                       | |
              | |        Avtor transkripcije: AliAs                     | |
              | |    Domača stran transkripcije: www.trzalica.com       | |
              | |  Datum nastanka transkripcije: 10.2.2014              | |
              | |_______________________________________________________| |
              |___________________________________________________________|

===========================================================================================================

Pol tona nižja uglasitev!


Uvod 1:

Eb|-15/-|-15-15--13-13-13--15/-|----------------------------|
Bb|-----|----------------------|----------------------------|
Gb|-----|----------------------|-16-14-------16-14----------|
Db|-----|----------------------|-------17-16-------17-16-14-|
Ab|-----|----------------------|----------------------------|
Eb|-----|----------------------|----------------------------|
                 3x

    G                         F                        H    D
Eb|---------------------------------|--------------------------|
Bb|---------------------------------|-----------------(4)--(7)-|
Gb|---------------------------------|-----------------(4)--(7)-|  bas
Db|---5---5---5---5---5---5-----3-5-|---5---5---5---5-(4)--(7)-|  linija
Ab|---------------------------5-----|------------------2----5--|
Eb|-3---3---3---3---3---3---3-------|-3---3---3---3------------|
                 3x

Verz 1:

    E                   A
    Disko plesišče je njeno bojišče
               C                      G            H
    lightshow je njeno sonce in zvezdnato nebo
       E                A
    v ritmu pudinga na disko hite trese
                  C               G                   A
    in če izbere ravno tebe boš njen al te ne bo

Predrefren 1:

    F                           C                   F                           C                 H
eb|-13-13-13--13---13-13-13-13---12--12--12-13-12-|-13-13-13--13---13-13-13-13---12--12--12-12-12-11--|
Bb|-13-13-13--13---13-13-15-13---13--13--13-13-13-|-13-13-13--13---13-13-15-13---13--13--13-13-13-12--|
Gb|-14-14-14--14---14-14-14-14---12--12--12-12-12-|-14-14-14--14---14-14-14-14---12--12--12-12-12-11--|
Db|-----------------------------------------------|---------------------------------------------------|
Ab|-----------------------------------------------|---------------------------------------------------|
Eb|-----------------------------------------------|---------------------------------------------------|
                      2x
 



          F                C
    Spredaj in zadaj dva fat-bag balona
               F                C
    res zgleda strupeno to je lahko le ona
            F                     C               H
    čeprav ne bo priznala je polna silikona aaah

Refren 1:

               Em H-C G                   A H
    Densi mayalona    ona je središče sveta
     Em             H-C       G                    A H
    rit za pol vagona če bo treba bo do zore plesala
     Em          H-C G                     A H
    densi mayalona  čipke žolca disko muzika
     Em             H-C             G                    A H
    diva brez pardona  še v nočnih morah bo ob tebi migala
    
    E A C G-H
Eb|-12-11-12---12-------12-------------------------15\-|
Bb|---------------12-14----12-13--13--13-12-13-12------|
Gb|----------------------------------------------------|  2x
Db|----------------------------------------------------|
Ab|----------------------------------------------------|
Eb|----------------------------------------------------|

Verz 2:

    Našobljene ustnice a' la vodni sesalec
    nihče je ne spregleda če ni totalno slep
    njena žrtev je lahko katerikoli plesalec
    ampak tudi kdo ki se ob šanku maje zadet

Predrefren 2:

    Spredaj in zadaj dva fat-bag balona
    res zgleda strupeno to je lahko le ona
    čeprav ne bo priznala je polna silikona aaah

Refren 2:

    Densi mayalona ona je središče sveta
    boljša kot Madonna če bo treba bo do zore plesala
    densi mayalona čipke žolca disko muzika                  (D  H)
    to je twajlajt cona še v nočnih morah bo ob tebi migala

Uvod 2:

Eb|-15/-|-18-17-15--13-15/-|-15-13----13-15/-|----------------------------|
Bb|-----|------------------|-------15--------|----------------------------|
Gb|-----|------------------|-----------------|-16-14-------16-14----------|
Db|-----|------------------|-----------------|-------17-16-------17-16-14-|
Ab|-----|------------------|-----------------|----------------------------|
Eb|-----|------------------|-----------------|----------------------------|
                 2x

    G                         F                        H    D
Eb|---------------------------------|--------------------------|
Bb|---------------------------------|-----------------(4)--(7)-|
Gb|---------------------------------|-----------------(4)--(7)-|  bas
Db|---5---5---5---5---5---5-----3-5-|---5---5---5---5-(4)--(7)-|  linija
Ab|---------------------------5-----|------------------2----5--|
Eb|-3---3---3---3---3---3---3-------|-3---3---3---3------------|
                 3x

Verz 3:

    Nimaš kam uit nimaš kam zbežat
    ko vrže uko nate in te zagrabi za vrat
    ko si na njenem terenu te reši samo bog
    ampak na vašo žalost jaz bolj redko hodim tu okrog

Predrefren 3:

    Spredaj in zadaj dva fat-bag balona
    res zgleda strupeno to je lahko le ona
    čeprav ne bo priznala je polna silikona aaah

Solo/Refren:

    Densi mayalona...COME ON BEJBE...

Eb|------------------------------------------------------------------------------------------
Bb|------------------------------------------------------------------------------------------
Gb|-12br---------------------------------------------12-12----12-12----12--12----12-12----12-
Db|-----14--12b-14--12br-10-9v-----7-9v----7-9v--/14-------14-------14--------14-------14----
Ab|-----------------------------10------10---------------------------------------------------
Eb|------------------------------------------------------------------------------------------

Eb|--------------------------------12--------------------------
Bb|----12---12---12---12-----12h15----15b--15b-15-12-----------
Gb|-14b--14b--14b--14b--14b--------------------------14br-12v--
Db|------------------------------------------------------------
Ab|------------------------------------------------------------
Eb|------------------------------------------------------------

Eb|----------------------------10-------10-------10v--
Bb|----------------------10/12----10/12----10/12------
Gb|-9h10h12-9h10h12-9-12------------------------------
Db|---------------------------------------------------
Ab|---------------------------------------------------
Eb|---------------------------------------------------

Eb|----------------------------------------------------------
Bb|----------------------------------------------------------
Gb|----------------------------------------------------12----
Db|-----7-9--------------7/9/12v--12-14v-12-14v-12-14v----14-
Ab|-/10-----10-7-10-7-10-------------------------------------
Eb|----------------------------------------------------------

                                               Em
Eb|-------------------------------------------------|
Bb|-17-15-13----------------------------------------|
Gb|----------16-14-12-11---12--14v----12-11-\9-9----|
Db|-------------------------------------------------|
Ab|-------------------------------------------------|
Eb|-------------------------------------------------|

trzalica bar

trzalica bar

Dodaj komentar


Varnostna koda
Osveži

  Iskanje

config