tablatura akordi besedilo   Zavese plešejo (tab)

trzalica.com besedilo akordi tablature

Legenda ikon:


Pogoji uporabe.    

besedilo z akordi besedilo z akordi
tablature tablatura (tabulatura)
tablature tablatura za bas
tablature videolekcija

GuitarPro GutarPro (GP)
note Note (v PDF formatu)
sibelius Sibelius (SIB), itd.
..

Vse verzije te pesmi:    besedilo z akordi  Zavese plešejo     besedilo z akordi  Zavese plešejo v2       Zavese plešejo - uvod (gp)trzalica bar

 
Izvajalec: ..................... Zmelkoow
Skladba: ....................... Zavese plešejo
Album: ......................... Izštekani pri Juretu Longyki
Transkripcijo izdelal .......... George & AliAs
Vrsta transkripcije ............ Besedilo z akordi in tablatura
Domača stran transkripcije ..... www.trzalica.com
         Posodobljeno: maj 2017, AliAs
================================================================================================
 
  D#dim = XX1212
  Dsus4 = XX0233
 
Pol tona nižja uglasitev!
 
 
Intro: G Hm Em D C Cm G D   2x
 
|-----------------------------------------------------------------------------------------|
|-12---12-12--13-12-10-12---12-12--13-12-10-12---12-12--13-12--13-13--12-12--10-10--12-13-|
|-12---12-12--12-12-12-12---12-12--12-12-12-12---12-12--12-12--12-12--12-12--12-12--12-12-|
|-----------------------------------------------------------------------------------------|
|-----------------------------------------------------------------------------------------|
|-----------------------------------------------------------------------------------------|
 
|---------------------------------------------------------------------|
|-13-13--15-13-12-13---13-13--15-13-10-10---12-13-15-13--10-10--10-10-|
|-12-12--12-12-12-12---12-12--12-12-12-12---12-12-12-12--12-12--12-12-|
|---------------------------------------------------------------------|
|---------------------------------------------------------------------|
|---------------------------------------------------------------------|
 
Verz:
 
      G         Hm             Em           D          C
Zavese plešejo jazz balet in veter liže palmi liste,
 
                   Cm       G            D  Dsus4  D
ptice pripravljajo kovčke za na pot.
 
      G          Hm             Em            D             C
Sonce je šlo danes na izlet nekam na jug zabavat turiste
 
                      Cm             G                 D  Dsus4  D
in cesta zgleda nekam zmedena brez kričanja otrok.
 
Refren:
 
 
      Am       Hm               C                 D#dim             Em   D   Dsus4  D
Danes vzamem en dan dopusta od divjega poletja in ostanem doma.
 
Intro: .........
 
Verz:
 
      G                  Hm               Em  D                   C
Vreme je včasih lepo tudi ko dežuje    in pada voda iz oblakov
 
                   Cm             G          D   Dsus4  D
na strehe avtov in na dežnikaste ljudi.
 
      G          Hm                  Em  D          C
Visim na oknu kot da premišljujem s kavo v roki,
 
                      Cm        G         D  Dsus4  D
vesel da sem sam da nihče ne govori.
 
Refren:
 
 
      Am       Hm               C                 D#dim             Em   D
Danes vzamem en dan dopusta od divjega poletja in ostanem doma.
 
 
     Am             D   Am                    D
Jesen čaka tiho za vogalom pod kupom listja in smeti,
 
     Am              D
jesen pride vedno, ko mi zmanjka moči... 
 
Outro: (intro 1x)
 
|-----------------------------------------------------------------------------------------|
|-12---12-12--13-12-10-12---12-12--13-12-10-12---12-12--13-12--13-13--12-12--10-10--12-13-|
|-12---12-12--12-12-12-12---12-12--12-12-12-12---12-12--12-12--12-12--12-12--12-12--12-12-|
|-----------------------------------------------------------------------------------------|
|-----------------------------------------------------------------------------------------|
|-----------------------------------------------------------------------------------------|
 
|-------------------------------------------------------------------------------------|
|-13-13--15-13-12-13---13-13--15-13-10-10---12-13-15-13--10--10-12-13-12-10--8--8-----|
|-12-12--12-12-12-12---12-12--12-12-12-12---12-12-12-12--12--12-12-12-12-12--9----9---|
|----------------------------------------------------------------------------------10-|
|-------------------------------------------------------------------------------------|
|-------------------------------------------------------------------------------------|
 



trzalica bartrzalica bar

Dodaj komentar


Varnostna koda
Osveži

  Iskanje

config