tablatura akordi besedilo   Puščava sna (tab)

trzalica.com besedilo akordi tablature

Legenda ikon:


Pogoji uporabe.    

besedilo z akordi besedilo z akordi
tablature tablatura (tabulatura)
tablature tablatura za bas
tablature videolekcija

GuitarPro GutarPro (GP)
note Note (v PDF formatu)
sibelius Sibelius (SIB), itd.
..

Author/Artist: Šank Rock
Title: Puščava sna
Transcribed by: žiga (FGL)
Email: Ta e-poštni naslov je zaščiten proti smetenju. Potrebujete Javascript za pogled.

To so v bistvu samo akordi, tab začetka in določeni
prehodi. Mogoče je kje malo mimo, drugače pa kar ok.

----------------------------------------------17------------------------------
-----17-19-19b21-b21-21vvvv-------17-19-19b21----r17vvv--19b21--17h19p17-16---
-/16--------------------------/16---------------------------------------------
------------------------------------------------------------------------------
------------------------------------------------------------------------------
------------------------------------------------------------------------------
                                                                              

------------------------------------------------------------------------------
------------------------------------------------------------------------------
--16--13-/18------------------------------------------------------------------
------------------------------------------------------------------------------
------------------------------------------------------------------------------
------------------------------------------------------------------------------

V tej pesmi se pojavlja en akord, za katerega ne vem, kako se imenuje, zato
ga bom označeval z A*: x02200.
                       EADGHe

                                                                              
  E      A*           f#        H
Šepetanje kaplja, tema hladne roke ima,
  E      A*           f#        H 
žalost je slika stara iz vina je vsa, 
         E      H       c#      H     A*
svila neba, a zvezd ni tam, ostajam sam... 

             To je znak za harmonicse(mislim da...)
                   /
--0-----------------------------------7^---
--0-----------7-/-9---10--12-------7^------
--2-----------6-/-8---9---11---------------
--2----------------------------------------
--0-----------4-/-6---7---9----------------
--X----------------------------------------

  E A*       f#           H
Ulice prazne, zaslišim tvoj korak, 
  E    A*     f#        H
ta znani vonj, napolni moj zrak,
     E      H    c#      H     A*
dvignem roke, objamem noč, puščavo sna... 
    H
Le ona me ima

ref:
          E      H    c#
Puščava sna, puščava sna, 
  A      H    E
prosim padi name
      H    A
kot kaplja upanja, 
E H   c#      H       A*
oazo sna, napravi mi ti.. 

------0-----0-----0-----0---0---------------------
----0-----0-----0-----0-----0---------------------
--2-----2-----2-----2-------2---------------------
--------------------------------------------------
--------------------------------------------------
--------------------------------------------------

H
prosim padaj mi na dlani... 

--12vvvvvvv---7-/9\7----------------------------------------------------------
--------------------------7b9r5--7b9--b9r5--7----7-4---4-0--------------------
------------------------4-----------------------------------------------------
------------------------------------------------------------4/6---------------
------------------------------------------------------------------------------
------------------------------------------------------------------------------

  E  A*       f#     H
Zaslišim korak, vrata odprem,
E   A*       f#         H
a vse je pusto, me gleda le mrak, 
     E      H    c#      H     A*
dvignem roke, objamem noč, puščavo sna... 
    H
Le ona me ima


ref:
          E      H    c#
Puščava sna, puščava sna, 
  A      H    E
prosim padi name
      H    A
kot kaplja upanja, 
E H   c#      H       
oazo sna, napravi mi ti.. 

f#    g#
Tu je pot, potovanja pa ni.
A    g#     H-A-g#
Slišiš krik let, kitara ga igra.
f#    g#
Ostal bom tu, ko odidejo vsi.
A A     A#             H
Prosim padaj, mi padaj, mi padaj na moje dlani.

Zadnji refren se ponovi, vendar pol tona višje:
F-C-d
A#-C-F
C-A#
F-C-d

trzalica bartrzalica bar

Dodaj komentar


Varnostna koda
Osveži

  Iskanje

config