tablatura akordi besedilo   Metulj (tab)

trzalica.com besedilo akordi tablature

Legenda ikon:


Pogoji uporabe.    

besedilo z akordi besedilo z akordi
tablature tablatura (tabulatura)
tablature tablatura za bas
tablature videolekcija

GuitarPro GutarPro (GP)
note Note (v PDF formatu)
sibelius Sibelius (SIB), itd.
..

Vse verzije te pesmi:    besedilo z akordi  Metulj (Šank Rock)       Metulj (Šank Rock) (tab)      Metulj (Zablujena generacija) (tab)

trzalica bar

Author/Artist: Šank Rock
Title: Metulj-live
Album: Na mrtvo v živo
Transcribed by: žiga (FGL)
Email: Ta e-poštni naslov je zaščiten proti smetenju. Potrebujete Javascript za pogled.

Precej dober približek pesmi iz tega live
albuma.
 
F-C-G-d-a-G

-1-0----1-0----0------------------0-1-0---0-----------------------------------
-----3------3----3-0-1-3-0-1------------3---3-1-------------------------------
-----------------------------2-2----------------------------------------------
------------------------------------------------------------------------------
------------------------------------------------------------------------------
------------------------------------------------------------------------------
                                                  uvod
F-C-G-d-a-G

 F
Mrak  je 
   C  G  
v  tišini  sem  nem
 d      a G  
s  tabo  v  zvezde  strmim
 F C  G
roka  boža  roko
   d        a        G
s  tabo  leteti  želim.

Tu  sva 
priklenjena  k  tlom
le  srca  pobegnila  sta
poljubim  te  na  oči  
duši  zlili  sta  se.

 F        d
Vem  da  ne  morem 
 C   a G F
a  dvignil  bi  se  u-u-u-u
  d
svoboden  kot  ptica
               C    a G F
s  tabo  v  nebo  u-u-u-u
       a     C  G
le  s  tabo  letel  bi  letel.

ref:
  a    G      C    
Rad  bi  bil  metulj
  F
da  bi  letel s teboj 
C       G
letel  s  teboj 
a    G      C   
Rad  bi  bil  metulj
  F
da  bi  letel s teboj 
C       G
letel  s  teboj. 

F-C-G-d-a-G  

Želim  si 
postati  metulj
s  tabo  bi  zvezde  lovil
krila  bi  pisana  imel
kot  ti  iz  svile  si  vsa.

1. solo...

refren...-Igranje kvint ustreznih akordov...          

2. solo...

1. solo:
------------------------------------------------------------------------------
------------------------------------------------------------------------------
--------------------9/12--17-16--12-12/14---------17-19b21-19-19b21vvv--------
-10vvvvvv--10-10-12-------------------------17-19-----------------------------
------------------------------------------------------------------------------
------------------------------------------------------------------------------
                                                                              

------------------------------------------------------------------------------
--18-------------18-17-------/18-17----18-17\-15/19vv-19-18-19-20-20b22-20vv--
-----19b21-r17---------19-17\-------19----------------------------------------
------------------------------------------------------------------------------
------------------------------------------------------------------------------
------------------------------------------------------------------------------
                                                                              

------------------------------------------------------------------------------
--17b18-17--------------------------------------------------------------------
-----------19-17-17/19--------------------------------------------------------
------------------------------------------------------------------------------
------------------------------------------------------------------------------
------------------------------------------------------------------------------
                                                                              

2. solo
------------------------------------------------------------------------------
---20b22vvvvvvv---b22-b22-b22-b22r17------------------18v-17------------------
------------------------------------------------17-19--------19-17------------
------------------------------------------17-19-------------------------------
---------------------------------------19-------------------------------------
------------------------------------------------------------------------------
                                                                              

------------------------------------------------------------------------------
-----------------18-17--------------------------------------------------------
-----------17-19-------19b21r17vv--19b21r17-19vv------------------------------
-----17-19--------------------------------------------------------------------
--19--------------------------------------------------------------------------
------------------------------------------------------------------------------
                                                                              

-20p17--17-h22p17--17-20p17--17-h22p17--17-h20p17--17-h22p17--17-h20p17--17---
------20---------20--------20---------20---------20---------20---------20-----
------------------------------------------------------------------------------
------------------------------------------------------------------------------
------------------------------------------------------------------------------
------------------------------------------------------------------------------
                                                                              

-h22p17----22b24-b24-b24v-b24b24-22-20-22-22b25-b25-22-20vv------17-17-17-20--
------------------------------------------------------------------------------
------------------------------------------------------------------------------
------------------------------------------------------------------------------
------------------------------------------------------------------------------
------------------------------------------------------------------------------
                                                                              

-17----------------------------------8r7r5------------------------------------
----20-17----------------------------------8r6r5------------------------------
----------19-17----17-19b21r17vvv----------------7-5-7b9r-----5---7----5------
----------------19------------------------------------------------------------
------------------------------------------------------------------------------
------------------------------------------------------------------------------                                                                       

trzalica bartrzalica bar

Dodaj komentar


Varnostna koda
Osveži

  Iskanje

config