tablatura akordi besedilo   Maček (tab)

trzalica.com besedilo akordi tablature

Legenda ikon:


Pogoji uporabe.    

besedilo z akordi besedilo z akordi
tablature tablatura (tabulatura)
tablature tablatura za bas
tablature videolekcija

GuitarPro GutarPro (GP)
note Note (v PDF formatu)
sibelius Sibelius (SIB), itd.
..

Author/Artist: Šank Rock
Title: Maček
Album: Na mrtvo v živo
Transcribed by: FGL
Email: Ta e-poštni naslov je zaščiten proti smetenju. Potrebujete Javascript za pogled.

To je približek live verziji te pesmi, iz albuma na mrtvo 
v živo. V pesmi je mnogo okraskov, zančilnih za Zuljana,
 večina so izpeljanke akordov, ki se mi jih ne da 
pisat... No, če ma kdo še kako željo za kako šank
pesem, akorde al pa tabse, naj pošlje mail, ne da se mi
vsega... Približek solota te pesmi pride v drugi 
datoteki...


------------------------------------------------------------------------------
-9-7----6-4-------------------------------------------------------------------
-9-8----6-4-------------------------------------------------------------------
-9-9----6-4---2-2-2-2-2-2-----------------------------------------------------
-7------4---------------------------------------------------------------------
------------------------------------------------------------------------------
 Zacetek je zaganje na E struni, potem pa to, zadeva se ponovi med pesmijo.   

------------------------------------------------------------------------------
----------------------------------------------4-------------------------------
---9---8-9------6---4-6------2---1-2----------4-------------------------------
-----9----9-------6----6-------2----2---------4-------------------------------
------------7-4----------4-0----------0-------2-------------------------------
-7--------------------------------------2-4-5---------------------------------
                                                                              

------------------------------------------------------------------------------
----------------4--2----------4-----------------------------------------------
----------------4--2----------4-----------------------------------------------
----------------4--2----------4-----------------------------------------------
----------------2--0----------2-----------------------------------------------
--0-0-0--0-0-0----------------------------------------------------------------
 Macek  brez repa, macek brez stirih tack (ponavljanje skozi kitico) prehod:  

------------------------------------------------------------------------------
-------------------------------------------------------------5-5-5------9-9---
-------------------------------------------------------------6-6-6------9-9---
-------------------------------------------------------------7-7-7------9-9---
------------------------------------------------------------------------------
---------------3--555---3-555----7777-----------------------------------------
 ..brez dalke, ki  nikoli ne  preganja mack (igrat s prsti): ta macek baraba  

------------------------------------------------------------------------------
-9----7--7-7-------------9-9-9-10-10-9--5-5-5---9-9-9----7--------------------
-9----8--8-8-------------9-9-9-9--9--9--6-6-6---9-9-9----8--------------------
-9----9--9-9-------------9-9-9-9--9--9--7-7-7---9-9-9----9--------------------
------------------------------------------------------------------------------
------------------------------------------------------------------------------
  je, po  glavi se mi podi             kadar me sonce prebudii... (sledi      

-------------------------------------------------------------0----------------
--------------------------------------------2-------4--------0----------------
--------------------------------------------2-------4--------1----------------
--------------------------------------------2-------4--------2----------------
--------------------------------------------0-------2--------2----------------
-------------------------------------------------------------0----------------
 refren, pri katerem se igra uvodni del)... Glava boli, in macek v krogu se   

------------------------------------------------------------------------------
---------------------4-------------------------4------------------------------
---------------------4---------2---------------4------------------------------
-----7-6--4----------4---------2---------------4------------------------------
-----7-6--4----------2---------0---------------2------------------------------
-----5-4--2-------------------------------------------------------------------
 mi vrti, v past ga dobim, ko bloody mary si naredim...                       

trzalica bartrzalica bar

Dodaj komentar


Varnostna koda
Osveži

  Iskanje

config