tablatura akordi besedilo   Hvala za vse (tab)

trzalica.com besedilo akordi tablature

Dolpoteg je spletni arhiv glasbenih zapisov v različnih formatih:


Pogoji uporabe.    

besedilo z akordi besedilo z akordi
tablature tablature (tabulature)
tablature tablature za bas

GuitarPro GutarPro (GP)
note Note (ponavadi v PDF ali JPG formatu)
sibelius Sibelius (SIB)
, itd...

 

 

 

 

 


 


Author/Artist: Šank Rock
Title: Hvala Za Vse(solo)
Transcribed by: žiga - FGL
Email: Ta e-poštni naslov je zaščiten proti smetenju. Potrebujete Javascript za pogled.


Vseskozi ta solo benda recimo za cel ton(tak kot tukaj 11 prečka G-strune),
potem pa releasa oz spusti bend za pol tona, odlična vaja za začetnike, torej
ne spusti in gre na recimo 12. prečko, ampak samo bend spusti za pol tona.
Ni čisto natančno, je pa dober približek. 

 

------------------------------------------------------------------------------
------------------------------------------------------------------------------
--13b14vv14vv14vv14b13vv--11b13r12b13v13v13vr11-9-9/11vv--10b11v11v11v10------
------------------------------------------------------------------------------
------------------------------------------------------------------------------
------------------------------------------------------------------------------                                                                       

----------------2-------2-2h4-4/5-5/7-7/9-9/12-12/14-14/16-16/17--------------
------------5b7---2-5b7-------------------------------------------------------
--4b6r2-4b6-------------------------------------------------------------------
------------------------------------------------------------------------------
------------------------------------------------------------------------------
------------------------------------------------------------------------------
                                                                              
-16b17v17r16v17v17v17v17v16vv--14b16v16r15b16v16-16r14-12-12/14---------------
------------------------------------------------------------------------------
------------------------------------------------------------------------------
------------------------------------------------------------------------------
------------------------------------------------------------------------------
------------------------------------------------------------------------------                         
                                                     
Ta oklepaj tukaj pomeni pač, da se bend spusti preko tega tona... Ne znam tega
drugač utablaturit.
------------------------------------------------------------------------------
-18b19v19r18v19v19v19v19r18----21b22r21-19-17b19--19r(17)14--17b19-19r(17)14--
----------------------------18------------------------------------------------
------------------------------------------------------------------------------
------------------------------------------------------------------------------
------------------------------------------------------------------------------                                                                             

------------------------------------------------------------------------------
-------16-14------------------------------------------------------------------
-16-14-16-14--------------14-14-13--------------------------------------------
--------------------14-16----------16-14-14/16--------------------------------
--------------14-16-----------------------------------------------------------
------------------------------------------------------------------------------
                                                                              
To pa neki vmesni del pred koncem:
------------------------------------------------------------------------------
------------------------------------------------------------------------------
----------------2-1-----------------------------------------------------------
--2-4-4-2-4-2-4-----4-2-2/4---------------------------------------------------
------------------------------------------------------------------------------
------------------------------------------------------------------------------
                                  
Pa konec:
---------------------------------------
---------------------------------------
-----------------4-6-------------------
-----------4-6-7-----------------------
-------2-4-------------------2-4-9vv---
-2-4-5-----------------2-4-5-----------                                            
                                                                              

trzalica bartrzalica bar

 

 

 

Dodaj komentar


Varnostna koda
Osveži

  Iskanje

config