Logo

tablatura akordi besedilo   Hitro drugam (tab)

trzalica.com besedilo akordi tablature

Dolpoteg je spletni arhiv glasbenih zapisov v različnih formatih:


Pogoji uporabe.    

besedilo z akordi besedilo z akordi
tablature tablature (tabulature)
tablature tablature za bas

GuitarPro GutarPro (GP)
note Note (ponavadi v PDF ali JPG formatu)
sibelius Sibelius (SIB)
, itd...

 

 

 

 

 


 


Author/Artist: Šank Rock
Title: Hitro Drugam
Transcribed by: žiga - FGL
Email: Ta e-poštni naslov je zaščiten proti smetenju. Potrebujete Javascript za pogled.
Domača stran transkripcije: www.trzalica.com

Predzuljanska pesem (se mi zdi)... Žal ne slišim točno vsega besedila...

 

Riff
------------------------------------------------------------------------------
------------------------------------------------------------------------------
------------------------------------------------------------------------------
--------------------5-4----------------------------5-5------------------------
---------5-4---4--------7-5-4--------------5-4---4----------------------------
-0-4-5-7-----7----------------7----0-4-5-7-----7------------------------------                                                                          

------------------------------------------------------------------------------
------------------------------------------------------------------------------
---------------------------------------------------7--------------------------
-------------------5-4-----------------------------7--7-----------------------
---------5-4---4-------7-5-4--------------5-4------5--7-----------------------
-0-4-5-7-----7---------------7----0-4-5-7-----7-------5-----------------------
                                                                              
Spremljava kitice je taka izpeljava bluesa. To je vzorec
---------------------------------
---------------------------------
---------------------------------
---------------------------------
--2-2-4-2----2-2-4-2-5-2-4-2-----
--0-0-0-0----0-0-0-0-0-0-0-0-----

Vmes pa ta prehodek,ki ga igrajo keyboardsi,na kitari fajn zveni recimo takole
---------------------------------
---------------------------------
---------------------------------
--6-6-7-9------------------------
---------------------------------
--4-4-5-7------------------------

V baru sedim, želim si drugam.
Vabi me pot, cilj ni mi znan.

  A
Zajahm motor, v usnje odet. O


Vroči asfalt, nikjer konca ni;

       H
Veter piska v uho,kilometri bežijo.
A
Ni važno kam bom prišel.
  E    H        A  
Hitro drugam, hitro drugam!
 A   H     E   H        A
Ni važno kam, ni važno kam!

(Riff)

... 

A
..., začrni vizir.

Sem prerojen, z znojem spojem.

H
Vozim tisoč na uro,rušim vse pred seboj, 
A
ni važno, kam bom prišel.
  E    H        A  
Hitro drugam, hitro drugam!
 A   H     E   H        A
Ni važno kam, ni važno kam!

Solo keyboradsi, tukaj je spremljava blues zadeve: E,A,E,H,A pa prehod v kitico->

->A
ni važno, kam bom prišel.
  E    H        A  
Hitro drugam, hitro drugam!
 A   H     E   H        A
Ni važno kam, ni važno kam!

(Riff)

(vse tiho)

trzalica bartrzalica bar

 

 

 

Template Design © Joomla Templates | GavickPro. All rights reserved.