tablatura akordi besedilo   Gvendolina (kdo je bil) (tab)

trzalica.com besedilo akordi tablature

Legenda ikon:


Pogoji uporabe.    

besedilo z akordi besedilo z akordi
tablature tablatura (tabulatura)
tablature tablatura za bas
tablature videolekcija

GuitarPro GutarPro (GP)
note Note (v PDF formatu)
sibelius Sibelius (SIB), itd.
..

Vse verzije te pesmi:    besedilo z akordi  Gvendolina (kdo je bil)       Gvendolina (kdo je bil) v2

trzalica bar

 _______________________________________________________
|                                                       |
| IZVAJALEC: .................. Srce                    |
| PESEM: ...................... Gvendolina, kdo je bil? |
|_______________________________________________________|
|                                                       |
| Vrsta transkripcije: Tabulatura in besedilo z akordi  |
| Tabulatura napisana na podlagi NoMADove transkripcije |
| Avtor transkripcije: AliAs in NoMAD                   |
|   email: Ta e-poštni naslov je zaščiten proti smetenju. Potrebujete Javascript za pogled.                           |
| Domača stran transkripcije: www.trzalica.com        |
| Datum nastanka transkripcije: 5.9.2006                |
|_______________________________________________________|


================================================================================================

LEGENDA ZNAKOV:

p = pul off
h = hold on
/ = slide up
^ = bend up za 1/2 tona
f = bend up za cel ton

Ne zagotavljam da sem vse napisal pravilno.
Uporabil sem zahodni (ameriški) sistem zapisa akordov - glej tabulaturo.
Solo prepuščam komu drugemu


================================================================================================

UVOD:

Klavir na kitari:
   Am          Am11
e|-----12----------10-------|
B|-----13----------13-------|
G|-----14----------14-------|  -- 4x
D|--------------------------|
A|-0-----------0------------|
E|--------------------------|

solo:
e|-----------------10--------------------10--------------------|
B|-10^---10--------------10^---10------------------------------|
G|----------9---------------------9----------------------------|
D|------------10--------------------10-------------------------|
A|-------------------------------------------------------------|
E|-------------------------------------------------------------|

e|---------------------------------------------7--8--10--11-12-|
B|------------------7^---------8^----------10------------------|
G|-------7^----------------------------------------------------|
D|-5h7p5------5h7p5------5h7p5------5h7p5----------------------|
A|-------------------------------------------------------------|
E|-------------------------------------------------------------|


REFREN 1:

       Am   C            A#       Am
Gvendolina!  ... Kdo je bil,  o kdo je bil?
Gvendolina!  ... Kdo je bil,  o kdo je bil?

   Am       C        A#       Am
e|----------------------------12h15p12h15p12...-------------------|
B|----------------------------------------------12h15p12h15p12...-|
G|----------------------------------------------------------------|
D|-7--------10-------8--------------------------------------------|
A|-7--------10-------8--------------------------------------------|
E|-5--------8--------6--------------------------------------------|

   Am       C        A#       Am
e|-------------------------------------------------------|
B|-------------------------------------------------------|
G|----------------------------5h7p5h7p5h7p5h7p5h7p5...---|
D|-7--------10-------8-----------------------------------|
A|-7--------10-------8-----------------------------------|
E|-5--------8--------6-----------------------------------|


VERZ 1:

Am                Gm9        Gm          Am9
V moji hiši štiri crne gospe cujejo vso noc.
Am                Gm9           Am9       A11
Tvoje lice ko za solze ne ve, kaže tvojo moc.
Am                    Gm9          Gm           Am9
In grobarji štirje s krsto gredo, dan se bliža siv.
Am                 Gm9       Am9         A11
Gvendolina, reci, koga neso kaj je tebi bil?

   Am          Gm9         Gm          Am9
e|-5--5--5--5--5--5--5--5--3--3--3--3--7--7--7--7--|
B|-5--5--5--5--3--3--3--3--3--3--3--3--5--5--5--5--|
G|-5--5--5--5--3--3--3--3--3--3--3--3--5--5--5--5--|
D|-7--7--7--7--5--5--5--5--5--5--5--5--7--7--7--7--| \
A|-------------------------------------------------|  \
E|-------------------------------------------------|   \
                                                        \
   Am          Gm9         Am9         A11               \_ 2x
e|-5--5--5--5--5--5--5--5--7--7--7--7--0--0--0--0--|     /
B|-5--5--5--5--3--3--3--3--5--5--5--5--2--2--2--2--|    /
G|-5--5--5--5--3--3--3--3--5--5--5--5--2--2--2--2--|   /
D|-7--7--7--7--5--5--5--5--7--7--7--7--0--0--0--0--|  /
A|-------------------------------------0--0--0--0--|
E|-------------------------------------------------|


REFREN 2:

       Am   C            A#       Am
Gvendolina!  ... Kdo je bil,  o kdo je bil?
Gvendolina!  ... Kdo je bil,  o kdo je bil?

   Am       C        A#       Am
e|----------------------------12h15p12h15p12...-------------------|
B|----------------------------------------------12h15p12h15p12...-|
G|----------------------------------------------------------------|
D|-7--------10-------8--------------------------------------------|
A|-7--------10-------8--------------------------------------------|
E|-5--------8--------6--------------------------------------------|

   Am       C        A#       Am
e|-------------------------------------------------------|
B|-------------------------------------------------------|
G|----------------------------5h7p5h7p5h7p5h7p5h7p5...---|
D|-7--------10-------8-----------------------------------|
A|-7--------10-------8-----------------------------------|
E|-5--------8--------6-----------------------------------|


SOLO:
prvih nekaj tonov - približek
e|-------------------------------------------------------
B|-6/7-----6/7---------10f---10--8---7-8-7---5---5-------
G|-----5/7-----5/7-----------------------------7---------
D|-------------------------------------------------------.................????
A|-------------------------------------------------------
E|-------------------------------------------------------


REFREN 3:

       Am   C            A#       Am
Gvendolina!  ... Kdo je bil,  o kdo je bil?
Gvendolina!  ... Kdo je bil,  o kdo je bil?

   Am       C        A#       Am
e|----------------------------12h15p12h15p12...-------------------|
B|----------------------------------------------12h15p12h15p12...-|
G|----------------------------------------------------------------|
D|-7--------10-------8--------------------------------------------|
A|-7--------10-------8--------------------------------------------|
E|-5--------8--------6--------------------------------------------|

   Am       C        A#       Am
e|-------------------------------------------------------|
B|-------------------------------------------------------|
G|----------------------------5h7p5h7p5h7p5h7p5h7p5...---|
D|-7--------10-------8-----------------------------------|
A|-7--------10-------8-----------------------------------|
E|-5--------8--------6-----------------------------------|


VREZ 2:

Am              Gm9          Gm          Am9
Morebiti tisti štirje možje niso res ljudje.
Am                Gm9       Am9         A11
Izpolnili so ob grobu nato zadnjo ti željo.
Am                      Gm9          Gm               Am9
Zdaj v tej krsti tvoje truplo leži, smrt te druži z njim.
Am               Gm9       Am9              A11
Štiri vrane poletele so v dalj, dan se prebudi...

   Am          Gm9         Gm          Am9
e|-5--5--5--5--5--5--5--5--3--3--3--3--7--7--7--7--|
B|-5--5--5--5--3--3--3--3--3--3--3--3--5--5--5--5--|
G|-5--5--5--5--3--3--3--3--3--3--3--3--5--5--5--5--|
D|-7--7--7--7--5--5--5--5--5--5--5--5--7--7--7--7--| \
A|-------------------------------------------------|  \
E|-------------------------------------------------|   \
                                                        \
   Am          Gm9         Am9         A11               \_ 2x
e|-5--5--5--5--5--5--5--5--7--7--7--7--0--0--0--0--|     /
B|-5--5--5--5--3--3--3--3--5--5--5--5--2--2--2--2--|    /
G|-5--5--5--5--3--3--3--3--5--5--5--5--2--2--2--2--|   /
D|-7--7--7--7--5--5--5--5--7--7--7--7--0--0--0--0--|  /
A|-------------------------------------0--0--0--0--|
E|-------------------------------------------------|


REFREN 4:

       Am   C            A#       Am
Gvendolina!  ... Kdo je bil,  o kdo je bil?
Gvendolina!  ... Kdo je bil,  o kdo je bil?

   Am       C        A#       Am
e|----------------------------12h15p12h15p12...-------------------|
B|----------------------------------------------12h15p12h15p12...-|
G|----------------------------------------------------------------|
D|-7--------10-------8--------------------------------------------|
A|-7--------10-------8--------------------------------------------|
E|-5--------8--------6--------------------------------------------|

   Am       C        A#       Am
e|-------------------------------------------------------|
B|-------------------------------------------------------|
G|----------------------------5h7p5h7p5h7p5h7p5h7p5...---|
D|-7--------10-------8-----------------------------------|
A|-7--------10-------8-----------------------------------|
E|-5--------8--------6-----------------------------------|

       Am          C           A#           Am
Gvendolina, Gvendolina, Gvendolina, kdo je bil?

   Am          C           A#                  Am
e|---------------------------------------------5-----------|
B|---------------------------------------------5-----------|
G|---------------------------------------------5-----------|
D|-7--7--7--7--10-10-10-10-8--8--8------8------7-----------|
A|-7--7--7--7--10-10-10-10-8--8--8------8------7-----------|
E|-5--5--5--5--8--8--8--8--6--6--6--8^--6------5-----------|



trzalica bartrzalica bar

Dodaj komentar


Varnostna koda
Osveži

  Iskanje

config