tablatura akordi besedilo   Vedno bom le tebe ljubil (tab)

trzalica.com besedilo akordi tablature

Legenda ikon:


Pogoji uporabe.    

besedilo z akordi besedilo z akordi
tablature tablatura (tabulatura)
tablature tablatura za bas
tablature videolekcija

GuitarPro GutarPro (GP)
note Note (v PDF formatu)
sibelius Sibelius (SIB), itd.
..

Vse verzije te pesmi:    besedilo  Vedno bom le tebe ljubil     tablatura akordi besedilo  Vedno bom le tebe ljubil (tab)

trzalica bar

-------------------------------------------------------------------------------
                   Rok 'n' Band - Vedno bom le tebe ljubil
-------------------------------------------------------------------------------
Transkripcija: mitja.forte @ ultimate-guitar.com
E-mail: Ta e-poštni naslov je zaščiten proti smetenju. Potrebujete Javascript za pogled.
 
 
[Uvod]
 
     A#                       D#
e|-8/10--10-10--8---8/10-9--8-6-6-6--8-8-8--10-10-10--8-8-8----------------|
H|-9/11--11-11--9---9/11-10-9-8-8-8--8-8-8--8--8--8---8-8-8----------------|
G|-------------------------------------------------------------------------|
D|-------------------------------------------------------------------------|
A|-------------------------------------------------------------------------|
E|-------------------------------------------------------------------------|
 
 
[Verz 1]
 
          D#
          Ko   zaljubil    sem se vate   vsi so rekli ta    ni
e|-6-6-6--8-8-8--10-10-10--8-8-8--6-6-6--8-8-8--10-10-10--8-8-8------------|
H|-8-8-8--8-8-8--8--8--8---8-8-8--8-8-8--8-8-8--8--8--8---8-8-8------------|
G|-------------------------------------------------------------------------|
D|-------------------------------------------------------------------------|
A|-------------------------------------------------------------------------|
E|-------------------------------------------------------------------------|
 
   A#
...zate                      a življenje brez         ljubezni
e|-8-8-8--10-10-10--11-11-11--10-10-10--6-6-6--3-3-3--4-4-4--4-4-4--3-3-3--|
H|-9-9-9--9--9--9---9--9--9---9--9--9---8-8-8--4-4-4--6-6-6--6-6-6--4-4-4--|
G|-------------------------------------------------------------------------|
D|-------------------------------------------------------------------------|
A|-------------------------------------------------------------------------|
E|-------------------------------------------------------------------------|
 
 
[Verz 2]
 
                                            D#
                                         Le močno me...    (pred refrenom)
e|-6-6-6--8-8-8--10-10-10--8-8-8--6-6-6--8-8-8---------||-9-9-9--9-9-9------|
H|-8-8-8--8-8-8--8--8--8---8-8-8--8-8-8--8-8-8---------||-8-8-8--8-8-8------|
G|-----------------------------------------------------||-------------------|
D|-----------------------------------------------------||-------------------|
A|-----------------------------------------------------||-------------------|
E|-----------------------------------------------------||-------------------|
 
 
[Verz 1]
 
     D#
Ko zaljubil sem se vate,
D#                 A#
vsi so rekli ta ni zate
Fm               A#
A življenje brez ljubezni,
A#7            D#
živijo le tihi trezni.
 
 
[Verz 2]
 
     D#
Le močno me sedaj objemi,
D#                 A#
njih besedam ne verjemi
Fm               A#
Oni so se že vdali,
A#7           D#           D#7
svoj poraz so ze priznali.
 
 
[Refren 1]
 
G#    A#          D#        D#7
Vedno bom le tebe ljubil
G#    A#          D#        D#7
pa čeprav bi te izgubil
G#    A#           D#       D#7
Le ob tebi bom res srečen,
A#7                D#       D#7
naj trenutek ta bo večen.
 
 
[Refren 2] 
 
G#    A#          D#        D#7
Naj ljudje kar govorijo,
G#    A#          D#        D#7
ker ljubezni se bojijo
G#     A#           D#      D#7
Jaz ob tebi bom res srečen,
A#7                D# 
naj trenutek ta bo večen.
 
 
[Verz 1]
 
     D#
Ko zaljubil sem se vate,
D#                 A#
vsi so rekli ta ni zate
Fm               A#
A življenje brez ljubezni,
A#7            D#
živijo le tihi trezni.
 
 
D#  A#  Fm  A#  A#7  D#
 
 
[Refren 1]
 
G#    A#          D#        D#7
Vedno bom le tebe ljubil
G#    A#          D#        D#7
pa čeprav bi te izgubil
G#    A#           D#       D#7
Le ob tebi bom res srečen,
A#7                D#       D#7
naj trenutek ta bo večen.
 
 
[Refren 2] 
 
G#    A#          D#        D#7
Naj ljudje kar govorijo,
G#    A#          D#        D#7
ker ljubezni se bojijo
G#     A#           D#      D#7
Jaz ob tebi bom res srečen,
A#7                D# 
naj trenutek ta bo večen.
 
 
[Verz 2]
 
     D#
Le močno me sedaj objemi,
D#                 A#
njih besedam ne verjemi
Fm               A#
Oni so se že vdali,
A#7           D#          
svoj poraz so že priznali.
A#       D#
mmmmmmmmmmmm.
 

trzalica posnetek bar

trzalica bar
 

Dodaj komentar


Varnostna koda
Osveži

  Iskanje

config