tablatura akordi besedilo   Ko si na tleh - solo (tab)

trzalica.com besedilo akordi tablature

Legenda ikon:


Pogoji uporabe.    

besedilo z akordi besedilo z akordi
tablature tablatura (tabulatura)
tablature tablatura za bas
tablature videolekcija

GuitarPro GutarPro (GP)
note Note (v PDF formatu)
sibelius Sibelius (SIB), itd.
..

Vse verzije te pesmi:      Ko si na tleh (tab)       Ko si na tleh - solo (tab)

trzalica bar

   ___________________________________________________________
  |  _______________________________________________________  |
  | |                                                       | |
  | | IZVAJALEC: .............. Pop Design                  | |
  | | PESEM: .................. Ko si na tleh               | |
  | |_______________________________________________________| |
  | |                                                       | |
  | |          Avtor transkripcije: Česnik                  | |
  | |   Domača stran transkripcije: www.trzalica.com        | |
  | |_______________________________________________________| |
  |___________________________________________________________|



Tablatura za glavni solo:
e|------------------------------------------------------------19------------------------------------------------
B|-----------------------------------16-17-19----19f--19--17---------------19f-19-17-19f---19f-19-17-17/19f-17--
G|-------------------------14-16-18--------------------------------12/16----------------------------------------
D|--------------14-16-18----------------------------------------------------------------------------------------
A|---14-16-18---------------------------------------------------------------------------------------------------
E|--------------------------------------------------------------------------------------------------------------

e|----------------------------------------------------------------------------------------
B|-------------------------------------------12-14-------------12-14r----14r-12--14r--12--
G|---18/21r---16/19r---14-12-13f----13-14-15----------13-14-15----------------------------
D|----------------------------------------------------------------------------------------
A|----------------------------------------------------------------------------------------
E|----------------------------------------------------------------------------------------

e|--------11-----------------------------------12--------------------19-------------------
B|--14r------12----12/19---19r-19r-19----12-14--------14--12--14/12-----------------------
G|----------------------------------------------------------------------------------------
D|----------------------------------------------------------------------------------------
A|----------------------------------------------------------------------------------------
E|----------------------------------------------------------------------------------------



f = bend za cel ton
r = hitro popusti bend
/ = slide up
\ = slide down

trzalica bartrzalica bar

Dodaj komentar


Varnostna koda
Osveži

  Iskanje

config