tablatura akordi besedilo   Tebi

trzalica.com besedilo akordi tablature

Legenda ikon:


Pogoji uporabe.    

besedilo z akordi besedilo z akordi
tablature tablatura (tabulatura)
tablature tablatura za bas
tablature videolekcija

GuitarPro GutarPro (GP)
note Note (v PDF formatu)
sibelius Sibelius (SIB), itd.
..

Modrijani - Tebi
==================================
 za pol tona nižje uglašena kitara
 torej   = Eb Ab Db Gb B  Eb

 oziroma = D# G# C# F# A# D#
==================================
 

UVOD:

      H                Hsus4                       H                Hsus4           <-- akord
      C                Csus4                       C                Csus4           <-- prijem
D#||-----------------------------------------|--------------------------------------|
A#||-----------1--------------------1--------|-----------1-----------------1--------|
F#||--------0-----0--------------0-----0-----|--------0-----0-----------0-----0-----|
C#||-----2-----------2--------3-----------3--|-----2-----------2-----3-----------3--|
G#||--3-----------------3--------------------|--3-----------------3-----------------|
D#||-----------------------------------------|--------------------------------------|

 

 

1. KITICA:

  H                  H/A#                   G#m                G#m/F#                <-- akord
  C                  C/H                    Am                 Am/G                  <-- prijem
----------------------------------------|-------------------------------------------|
-----------1-------------------1--------|------------1---------------------1--------|
--------0-----0-------------0-----0-----|---------2-----2---------------2-----2-----|
-----2-----------2-------2-----------2--|------2-----------2---------2-----------2--|
--3-----------------2-------------------|--0----------------------------------------|
----------------------------------------|---------------------3---------------------|


  E                                      F#                                    <-- akord
  F                                      G                                     <-- prijem 
--------------------------------------|--------------------------------------||
-----------1-----------------1--------|-----------0-----------------0--------||
--------2-----2-----------2-----2-----|--------0-----0-----------0-----0-----||
-----3-----------3-----3-----------3--|-----0-----------0-----0-----------0--||
--------------------------------------|--------------------------------------||
--1-----------------1-----------------|--3-----------------3-----------------||


    C    = [x 3 2 0 1 0]
    Csus = [x 3 3 0 1 x]
    C/H  = [x 2 2 0 1 x]

    Am   = [x 0 2 2 1 0]
    Am/G = [3 0 2 2 1 0]


    C   Csus   C   Csus

    C    ( C/H )       Am
  Kdo kot jaz izbiral je poti
         ( Am/G )      F                          
          In nudil priložnosti
                       G
        ljudem ki so brez vesti


    C    ( C/H )       Am
  Kdo preštel na duši bo sledi
         ( Am/G )      F   
           Udarcev in težkih dni
                       G
         ljubezni si vsak želi

          Em          F
            ... Nežna kot nebo
          Em          F
            ... čista kot zlato
          Em          F            C    G
            ... naj tolažim se pri te - bi

                       C                Am
                      Ti ki rano celiš mi
                       G                F
                 V s t a j a š    v  temi
                                        C    G
                        Nocoj zaspi ob me - ni

                       C                Am
                      Ti ki ramo nudiš mi
                       G                F
                   Verjameš   v lepše dni
                                        C    G      C
                        To pesem pojem te - bi  ... Ti



Vem da človek kdaj pa kdaj greši
Utrujen in brez moči
Ne zmore prihodnosti

Kdo preštel na duši bo sledi
Udarcev in težkih dni
ljubezni si vsak želi

       Nežna kot nebo
       Čista kot zlato
       Naj tolažim se pri tebi

                       Ti ki rano celiš mi
                       Vstajaš v temi
                       Nocoj zaspi ob meni

                       Ti ki ramo vodiš mi
                       Verjameš v lepše dni
                       To pesem pojem tebi  

 
  >>>> vse sskupaj za dva poltona navzgor >>>>>>>>>>>>>>>>>>>>>>>>>>>>>


                       D                Hm
                      Ti ki rano celiš mi
                       A                G
                 V s t a j a š    v  temi
                                        D   A
                        Nocoj zaspi ob me - ni

                       D                Hm
                      Ti ki ramo nudiš mi
                       A                G
                   Verjameš   v lepše dni
                                        D    A       D   
                        To pesem pojem te - bi  ... Ti



=============================
snel in zapisal: NoMAD / 2015
&
tablaturo prispeval: mondxxi
=============================

trzalica bar

trzalica bar
 Dobre vile debatirajo o teh akordih na Forumu
trzalica bar


 

Dodaj komentar


Varnostna koda
Osveži

  Iskanje

config