tablatura akordi besedilo   Slečeno srce (tab)

trzalica.com besedilo akordi tablature

Legenda ikon:


Pogoji uporabe.    

besedilo z akordi besedilo z akordi
tablature tablatura (tabulatura)
tablature tablatura za bas
tablature videolekcija

GuitarPro GutarPro (GP)
note Note (v PDF formatu)
sibelius Sibelius (SIB), itd.
..

Vse verzije te pesmi:      Slečeno srce (tab)       Slečeno srce (gp)

trzalica bar

 

 Izvajalec: ................... Nina Pušlar
 Skladba: ..................... Slečeno srce 
 Avtor besedila: .............. Barbara Pešut
 Avtor glasbe: ................ Martin Štibernik
 Album: ....................... ?
 Leto izzida: ................. ? 
 Transkripcijo izdelal ........ NoMAD & AliAs /2009
 Vrsta transkripcije .......... Besedilo z akordi in tablaturo  
 Domaca stran transkripcije ... www.trzalica.com

=========================================================================


                        E    C#m
                        E    C#m

                        E
                    Za mizo najino sedim
                        C#m
                 pomlad ... mi boža lase
                        E
                    na tebe mislim in tvoj parfum
                       C#m
                       ... na rokah diši
                       E
                okrog mene je le množica
                       C#m
                 samo ... ljudi, ki jih ne poznam
                       E
               vem da oni nič ne vidijo
                      C#m
                 tega ... kar najraje imam

   E                             C#m
e|-------------------------------------------------------------|
B|-------------------------------------------------------------|
G|-------------------------------------------------------------|
D|----6---7p6-6----6-6---7p6-6------6---7p6-6----6-6---7p6-6---|
A|-7----7-------7------7-------7-4----4-------4------4-------4-|
E|-------------------------------------------------------------|

                          A
                      zares lepo napisano
                          E
                     čez moje toplo je telo
                          A
                       besede ti prebral bi le
                          H
                      ko videl bi še moje 
                          F#m
                      srce ............. 
                          A
               moje slečeno srce

   A                             E
e|-------------------------------------------------------------|
B|-------------------------------------------------------------|
G|-------------------------------------------------------------|
D|----7---9p7-7----7-7---9p7-7------6---7p6-6----6-6---7p6-6---|
A|-7----7-------7------7-------7-7----7-------7------7-------7-|
E|-------------------------------------------------------------|

   A                             H
e|-------------------------------------------------------------|
B|-------------------------------------------------------------|
G|-------------------------------------------------------------|
D|----7---9p7-7----7-7---9p7-7------7---9p7-7----7-7---9p7-7---|
A|-7----7-------7------7-------7-9----9-------9------9-------9-|
E|-------------------------------------------------------------|

  F#m7add11    Asus2
e|-0-----------0-------------|
B|-0-----------0-------------|
G|-2-----------2-------------|
D|-4-----------2-------------|
A|-4-----------0-------------|
E|(2)------------------------|

                          E
   .........................
                          C#m
   Ljubezen moja kje si zdaj
                          E
   zakaj ne prideš mimo kdaj
                          C#m
   da ti pokažem kar ne smem
                          A
  kar skrivam in to kar imam 
                          E
      le zate svoje slečeno srce
                          A
                      in da ti končno to povem
                          H
                      da se še enkrat z tabo ljubiti

   E               C#m  
e|-----------------------------------|
B|-------7-9-7----------4-5-4--------|
G|----9--------9------6-------6------|
D|-----------------------------------|
A|-----------------------------------|
E|-----------------------------------|

   A                                E                    H
e|----9-----7-----5-----7-----5--------4----------------|---7-----7-----7-----7-----7---|
B|-------------------------------------------6-----3----|-----7-----7-----7-----7-----7-|
G|------6-----6-----6-----6-----6--------4-----4---4----|-------8-----8-----8-----8-----|
D|--------7-----7-----7-----7--------------6-----6-6----|-------------------------------|
A|------------------------------------------------------|-------------------------------|
E|------------------------------------------------------|-------------------------------|

                          E
                       želim
                          C#m
                       želim
                          E
                       želim
                          C#m
                       želim

                          E
                       Večer je lep, a zunaj že
                          C#m
                          ... postaja hladno
                          E
                       hočem še čakati te
                          C#m
                          ... in ni mi težko

                          A
                      zares lepo napisano
                          E
                     čez moje toplo je telo
                          A
                       besede ti prebral bi le
                          H
                      ko videl bi še moje 

   A                                E                    H
e|----9-----7-----5-----7-----5--------4----------------|---7-----7-----7-----7-----7---|
B|-------------------------------------------6-----3----|-----7-----7-----7-----7-----7-|
G|------6-----6-----6-----6-----6--------4-----4---4----|-------8-----8-----8-----8-----|
D|--------7-----7-----7-----7--------------6-----6-6----|-------------------------------|
A|------------------------------------------------------|-------------------------------|
E|------------------------------------------------------|-------------------------------|

                          E
                       srce, Ljubezen moja
                          C#m
                 kje si zdaj
                          E
   zakaj ne prideš mimo kdaj
                          C#m
   da ti pokažem kar ne smem
                          A
  kar skrivam in to kar imam 
                          E
      le zate svoje slečeno srce

                          A
                      in da ti končno to povem
                          H
                      da se še enkrat z tabo ljubiti
                          E
                       želim
                          C#m
                       želim
                          E
                       želim
                          C#m
                       želim

                           E
   .........................
                          C#m
   Ljubezen moja kje si zdaj
                          E
   zakaj ne prideš mimo kdaj
                          C#m
   da ti pokažem kar ne smem
                          A
  kar skrivam in to kar imam 
                          E
      le zate svoje slečeno srce
                          A
                      in da ti končno to povem
                          H
                      da se še enkrat z tabo ljubiti
                          E
                       želim
                          C#m
                       želim
                          E
                       želim
                          C#m
                       želim ....
#==============================================================================#
#                                                                              #
#                    w w w . t r z a l i c a . c o m                           #
#               K j e r   i m a m o   r a d i   g l a s b o                    #
#                                                                              #
#==============================================================================#
trzalica bartrzalica bar

Dodaj komentar


Varnostna koda
Osveži

  Iskanje

config