tablatura akordi besedilo   Sladka kot med (tab)

trzalica.com besedilo akordi tablature

Legenda ikon:


Pogoji uporabe.    

besedilo z akordi besedilo z akordi
tablature tablatura (tabulatura)
tablature tablatura za bas
tablature videolekcija

GuitarPro GutarPro (GP)
note Note (v PDF formatu)
sibelius Sibelius (SIB), itd.
..

Oglej si še:

besedilo z akordi  Sladka kot med
  Sladka kot med (gp)
videolekcija Sladka kot med

trzalica bar

 Izvajalec: ................... Mi2
 Skladba: ..................... Sladka kot med
 Album: ....................... Rokenrol
 Leto izida: .................. 2010 
 Transkripcijo izdelal ........ gasperkla/2010  Ta e-poštni naslov je zaščiten proti smetenju. Potrebujete Javascript za pogled.
 Tablaturo dodal .............. AliAs/2015 
 Domača stran transkripcije ... www.trzalica.com
================================================================================
 
 
E g# c# A H
 
       E            g#          c#
Dobro vem da od spominov bolj otožno se živi,
      A                       H
da obrabljene vse rime so na maj.
      g#          G#          c#
A me vleče kakor druge, ki so bivali kdaj tam,
      A                            H
da odtavam spet tja v tisti mali kraj.
 
Pod goro bom v grad pekarno z vonjem kruha zjutraj ob treh,
vse do kina kamor treba je čez most.
V gorco, pred oltar, v mali nočni bar,
na topli jug, na sonce in mladost.
 
         A                    H
Bla je sladka ko med, bla je nežna kot cvet,
        E          G#      c#
bla je boljša od drugih deset.
        A                      H
Jes pa hotu sm svet, v svojo zvezdo ujet,
       E       G#     A
in jo pusto počasi venet.
 
 
Kako takrat, slišim zvoke, vidim barve, tipam stvari,
padam sneg, sušim obraz pod mavrico.
In še čutim nje korak, ko odjal sem na vlak,
sramežljiv poljub na lica za slovo.
 
 
         A                    H
Bla je sladka ko med, bla je nežna kot cvet,
        E          G#      c#
bla je boljša od drugih deset.
        A                      H
Jes pa hotu sm svet, v svojo zvezdo ujet,
       E       G#     c#
in jo pusto počasi venet.
 
 
   F#              G#
e|---------------------------------------------
H|-7--7--7---7-----9---9-----------------------
G|-9^-9^-9^--9^-9--11^-11^-(11)-5---5-6-8-6-8--
D|---------------------------------------------
A|---------------------------------------------
E|---------------------------------------------
 
   c#
e|-----------------------------------------------------------------------------
H|-----------------------------------------------------------------------------
G|-8/9--9-9-11-9-8-9--6/8-8-8-9-8-6-8--4/6--6-6-8-6-4-6--6-8-6-4-6--6/8--6--4--
D|-----------------------------------------------------------------------------
A|-----------------------------------------------------------------------------
E|-----------------------------------------------------------------------------
 
   F#                                                  G#
e|-------------------------------7-------------------------------------------------------------------------
H|---------------------------------10-7-----------------------------------------------12^--12--9-----------
G|-9/11-11--11-11--11-11--11-11---------9^ˇ-7h9p7---7--11/13-13--13-13--13-13--13-13--------------11^-ˇ-9--
D|------------------------------------------------9--------------------------------------------------------
A|---------------------------------------------------------------------------------------------------------
E|---------------------------------------------------------------------------------------------------------
 
   c#        C         H
e|-9----9----8----8--------------------------------------------|
H|-12^--12^--11^--11^--10/12--10--9--9h10p9------10^-----------|
G|------------------------------------------11-9---------------|
D|-------------------------------------------------------------|
A|-------------------------------------------------------------|
E|-------------------------------------------------------------|
 
 
       E             g#           c#
Dobro vem da pri spominih, se človeku v glavnem zdi,
         A                            H
da za nazaj izgleda vedno vse bolj lepo.
   g#            G#        c#
A tu pa tam priznam, prisežem, ni me sram, 
   A                         H
zalotim se da mislim le na njo.
 
 
         A                    H
Bla je sladka ko med, bla je nežna kot cvet,
        E          G#      c#
bla je boljša od drugih deset.
        A                      H
Jes pa hotu sm svet, v svojo zvezdo ujet,
       E       G#     c#
in jo pusto počasi venet.
 
         A                    H
Bla je sladka ko med, bla je nežna kot cvet,
        E          G#      c#
bla je boljša od drugih deset.
        A                      H
Jes pa hotu sm svet, v svojo zvezdo ujet,
       E       G#     A
in jo pusto počasi venet.
       f#        H       E
in jo pusto v Rogatci venet.
 
 

trzalica bar

trzalica bar

Dodaj komentar


Varnostna koda
Osveži

  Iskanje

config

      Nazadnje ogledano