tablatura akordi besedilo   Pa si šla (tab)

trzalica.com besedilo akordi tablature

Legenda ikon:


Pogoji uporabe.    

besedilo z akordi besedilo z akordi
tablature tablatura (tabulatura)
tablature tablatura za bas
tablature videolekcija

GuitarPro GutarPro (GP)
note Note (v PDF formatu)
sibelius Sibelius (SIB), itd.
..

Vse verzije te pesmi:    besedilo z akordi  Pa si šla v1     besedilo z akordi  Pa si šla v2       Pa si šla (tab)       Pa si šla (gp)

trzalica bar

 
NASLOV: Pa si šla
IZVAJALEC: Mi2
ALBUM: Album leta
AVTOR TABLATURE: Žiga Donik
Uredil: AliAs, november 2015
==================================
 
====
UVOD
====
 
   C#        D#        F
E|---------------------------------------------------------------------------------------------
H|---------------------------------------------------------------------------------------------
G|-6---6-6-6-8---8-8-8-10-10-10-10-10-10-12-12-12-12-12-12-13-13-13-13-13-13-17-17-17-17-17-17-
D|-6---6-6-6-8---8-8-8-------------------------------------------------------------------------
A|-4---4-4-4-6---6-6-6-8--8--8--8--8--8--10-10-10-10-10-10-11-11-11-11-11-11-15-15-15-15-15-15-
E|-4---4-4-4-6---6-6-6-------------------------------------------------------------------------
 
   C#        D#            F
E|------------------------------------------------------------------------------------
H|------------------------------------------------------------------------------------
G|-6---6-6-6-8---8-8-10-10-13-10-10-13-10-10-13-10-10-13-10-10-13-10-10-13-10-10-13\--
D|-6---6-6-6-8---8-8------------------------------------------------------------------
A|-4---4-4-4-6---6-6-8--8--11-8--8--11-8--8--11-8--8--11-8--8--11-8--8--11-8--8--11\--
E|------------------------------------------------------------------------------------
 
   C#        D#        F
E|---------------------------------------------------------------------------------------------
H|---------------------------------------------------------------------------------------------
G|-6---6-6-6-8---8-8-8-10-10-10-10-10-10-12-12-12-12-12-12-13-13-13-13-13-13-17-17-17-17-17-17-
D|-6---6-6-6-8---8-8-8-------------------------------------------------------------------------
A|-4---4-4-4-6---6-6-6-8--8--8--8--8--8--10-10-10-10-10-10-11-11-11-11-11-11-15-15-15-15-15-15-
E|---------------------------------------------------------------------------------------------
 
   C#        D#        C
E|-------------------------------|
H|-------------------------------|
G|-6---6-6-6-8---8-8-8-5---------|
D|-6---6-6-6-8---8-8-8-5---------|
A|-4---4-4-4-6---6-6-6-3---------|
E|-------------------------------|
 
 
======
KITICA
======
 
   F                       a                       C                         B
E|-------1-----------1-----------5-----------5------------8------------8-----------6-----------6-----|
H|---------1-----------1-----------5-----------5------------8------------8-----------6-----------6---|
G|---2-------2---2-------2---5-------5---5-------5---9--------9---9--------9---7-------7---7-------7-|
D|-----3-----------3-----------7-----------7-----------10-----------10-----------8-----------8-------|
A|---------------------------------------------------------------------------------------------------|
E|-1-----------1-----------5-----------5-----------8------------8------------6-----------6-----------|
 
blo je tak ko fina muzika...
E|-8--8--8--6--6--6--5--5--5-5-6---|
H|---------------------------------|
G|---------------------------------|
D|---------------------------------|
A|---------------------------------|
E|---------------------------------|
 
   C                    F
E|--------8-------------------1-----1-----|
H|----------8-------------------1---1-----|
G|---9--------9-----------2-------2-2-----|
D|-----10-------------------3-------3-----|
A|----------------------------------3-----|
E|-8------------8-------1-----------1-----|
 
  F                   a
  Bil sn tedi pubec mlad
    C                     B
  vsako jutro frišnega semena
      F                a
  da rešim tega se bremena
         C               B
  sn si našo dekle prvikrat.
  F                       a
  Nisn vedal kak se temu reče
       C                     B
  al blo je tak ko fina muzika
          F               a
  ko pod levo ramo ti trepečem
   C                          B
  dokler nisi prišla, pa si šla.
          C          F
  Pa si šla, pa si šla.
 
======
REFREN
======
 
         G                   B                   F         C               F
E||-x-x------------------------------------------------------------------|-----------m------||
H||-x-x------------------------------------------------------------------|-----------m------||
G||-x-x------------------------------------------------------------------|-----------m------||
D||-x-x--5---5-5-5-5---5-5-5-8---8-8-8-8---8-8-8-3---3-3-3-10---10-10-10-|-3---3-3-3-m------||
A||-x-x--5---5-5-5-5---5-5-5-8---8-8-8-8---8-8-8-3---3-3-3-10---10-10-10-|-3---3-3-3-m------||
E||-x-x--3---3-3-3-3---3-3-3-6---6-6-6-6---6-6-6-1---1-1-1-8----8--8--8--|-1---1-1-1-m------||
 
          G
  .... ti materna
     B                F       C
  familija naj ti bo žalostna
          F
  pa si šla.
          G
  .... ti materna
      B                      F   C
  pustila si me samega, ko psa!
 
 
======
KITICA
======
 
       F                    a
  Si prišla bolj še tak no parkrat
       C                       B
  ne zrajtam se glih vsakega imena
  F                            a
  enkrat vroča, drugič bolj menena
      C                      B
  a zmir po svoje mel sn te rad.
             C           F
  Mel sn te rad, pa si šla.
 
 
======
REFREN
======
 
        G                   B                   F         C             F
E|-x-x----------------------------------------------------------------------------m------|
H|-x-x----------------------------------------------------------------------------m------|
G|-x-x----------------------------------------------------------------------------m------|
D|-x-x--5---5-5-5-5---5-5-5-8---8-8-8-8---8-8-8-3---3-3-3-10---10-10-10-3---3-3-3-m------|
A|-x-x--5---5-5-5-5---5-5-5-8---8-8-8-8---8-8-8-3---3-3-3-10---10-10-10-3---3-3-3-m------|
E|-x-x--3---3-3-3-3---3-3-3-6---6-6-6-6---6-6-6-1---1-1-1-8----8--8--8--1---1-1-1-m------|
 
        G                   B                   F
E|-x-x------------------------------------------------------------|
H|-x-x------------------------------------------------------------|
G|-x-x------------------------------------------------------------|
D|-x-x--5---5-5-5-5---5-5-5-8---8-8-8-8---8-8-8-3---3-3-3---3-3-3-|
A|-x-x--5---5-5-5-5---5-5-5-8---8-8-8-8---8-8-8-3---3-3-3---3-3-3-|
E|-x-x--3---3-3-3-3---3-3-3-6---6-6-6-6---6-6-6-1---1-1-1---1-1-1-|
 
          G
  .... ti materna
     B                F       C
  familija naj ti bo žalostna
          F
  pa si šla.
          G
  .... ti materna
      B                      F
  pustila si me samega, ko psa!
 
 
====
SOLO
====
 
    C#  D#  F
    C#  D#  F
    C#  D#  F
    C#  D#  C
 
                                      14               P.H. (Priščipnjen Harmonik)
E|----------------------------------------------------------------------
H|----------------------------------------------------------------------
G|------------8--10----------8-10-10--12b--10-8-10-----10b--10-8-10-----
D|-------8-10-----------8-10--------------------------------------------
A|-/8-10----------------------------------------------------------------
E|----------------------------------------------------------------------
 
                                              12
E|--------------------------------------------/\-------------------------------
H|-9--8------9--8------11--9--8--11--9--8----/--\------------------------------
G|-------10--------10----------------------10b--(10)-8----8--------------------
D|-----------------------------------------------------10---10----8-7----------
A|---------------------------------------------------------------------8-----\-
E|-----------------------------------------------------------------------------
 
                                              12
E|--------------------------------------------/\------------------------------------------------
H|-9--8------9--8------11--9--8--11--9--8----/--\-----------------------------------------------
G|-------10--------10----------------------10b--(10)-8----8--------------------------------8-10-
D|-----------------------------------------------------10---10-8-7-8-7----------------8-10------
A|---------------------------------------------------------------------8-8-8-----8-10-----------
E|----------------------------------------------------------------------------------------------
 
 
E|-------------------------------------------------|
H|-9--8------9--8------11--9--8--11--9--8----------|
G|-------10--------10----------------------9----\--|
D|-------------------------------------------------|
A|-------------------------------------------------|
E|-------------------------------------------------|
 
 
======
KITICA
======
 
  Ena muza, druga zguza
  za vsako nova pesmica
  fajn se začne, švoh konca
  prišla si, pa si šla.
  Pa si šla, pa si šla.
 
 
======
REFREN
======
 
        G                   B                   F         C             F
E|-x-x----------------------------------------------------------------------------m------|
H|-x-x----------------------------------------------------------------------------m------|
G|-x-x----------------------------------------------------------------------------m------|
D|-x-x--5---5-5-5-5---5-5-5-8---8-8-8-8---8-8-8-3---3-3-3-10---10-10-10-3---3-3-3-m------|
A|-x-x--5---5-5-5-5---5-5-5-8---8-8-8-8---8-8-8-3---3-3-3-10---10-10-10-3---3-3-3-m------|
E|-x-x--3---3-3-3-3---3-3-3-6---6-6-6-6---6-6-6-1---1-1-1-8----8--8--8--1---1-1-1-m------|
 
        G                   B                   F         C             F
E|-x-x--------------------------------------------------------------------------------------|
H|-x-x--------------------------------------------------------------------------------------|
G|-x-x--------------------------------------------------------------------------------------|
D|-x-x--5---5-5-5-5---5-5-5-8---8-8-8-8---8-8-8-3---3-3-3-10---10-10-10-3---3-3-3-3---3-3-3-|
A|-x-x--5---5-5-5-5---5-5-5-8---8-8-8-8---8-8-8-3---3-3-3-10---10-10-10-3---3-3-3-3---3-3-3-|
E|-x-x--3---3-3-3-3---3-3-3-6---6-6-6-6---6-6-6-1---1-1-1-8----8--8--8--1---1-1-1-1---1-1-1-|
 
   G                   B                   F         C             F
E|-------------------------------------------------------------------------------------|
H|-------------------------------------------------------------------------------------|
G|-------------------------------------------------------------------------------------|
D|-5---5-5-5-5---5-5-5-8---8-8-8-8---8-8-8-3---3-3-3-10---10-10-10-3---3-3-3-3---3-3-3-|
A|-5---5-5-5-5---5-5-5-8---8-8-8-8---8-8-8-3---3-3-3-10---10-10-10-3---3-3-3-3---3-3-3-|
E|-3---3-3-3-3---3-3-3-6---6-6-6-6---6-6-6-1---1-1-1-8----8--8--8--1---1-1-1-1---1-1-1-|
 
   G                   B                   F
E|-----------------------------------------------------------|
H|-----------------------------------------------------------|
G|-----------------------------------------------------------|
D|-5---5-5-4-5---5-5-5-8---8-8-8-8---8-8-8-3---3-3-3---3-3-3-|
A|-5---5-5-4-5---5-5-5-8---8-8-8-8---8-8-8-3---3-3-3---3-3-3-|
E|-3---3-3-2-3---3-3-3-6---6-6-6-6---6-6-6-1---1-1-1---1-1-1-|
 
          G
  .... ti materna
     B                F       C
  familija naj ti bo žalostna
          F
  pa si šla.
          G
  .... ti materna
      B                      F   C
  pustila si me samega, ko psa!
          F     G
  Pa si šla, ti materna
     B                F       C
  familija naj ti bo žalostna
          F     G
  pa si šla, ti materna
      B                      F
  pustila si me samega, ko psa!
 
 
=====
OUTRO
=====
 
   C#        D#        F
E|---------------------------------------------------------------------------------------------
H|---------------------------------------------------------------------------------------------
G|-6---6-6-6-8---8-8-8-10-10-10-10-10-10-12-12-12-12-12-12-13-13-13-13-13-13-17-17-17-17-17-17-
D|-6---6-6-6-8---8-8-8-------------------------------------------------------------------------
A|-4---4-4-4-6---6-6-6-8--8--8--8--8--8--10-10-10-10-10-10-11-11-11-11-11-11-15-15-15-15-15-15-
E|-4---4-4-4-6---6-6-6-------------------------------------------------------------------------
 
   C#        D#            F
E|------------------------------------------------------------------------------------
H|------------------------------------------------------------------------------------
G|-6---6-6-6-8---8-8-10-10-13-10-10-13-10-10-13-10-10-13-10-10-13-10-10-13-10-10-13\--
D|-6---6-6-6-8---8-8------------------------------------------------------------------
A|-4---4-4-4-6---6-6-8--8--11-8--8--11-8--8--11-8--8--11-8--8--11-8--8--11-8--8--11\--
E|-4---4-4-4-6---6-6------------------------------------------------------------------
 
   C#        D#        F
E|---------------------------------------------------------------------------------------------
H|---------------------------------------------------------------------------------------------
G|-6---6-6-6-8---8-8-8-10-10-10-10-10-10-12-12-12-12-12-12-13-13-13-13-13-13-17-17-17-17-17-17-
D|-6---6-6-6-8---8-8-8-------------------------------------------------------------------------
A|-4---4-4-4-6---6-6-6-8--8--8--8--8--8--10-10-10-10-10-10-11-11-11-11-11-11-15-15-15-15-15-15-
E|-4---4-4-4-6---6-6-6-------------------------------------------------------------------------
 
   C#        D#        F#
E|-------------------------------|
H|-------------------------------|
G|-6---6-6-6-8---8-8-8-----------|
D|-6---6-6-6-8---8-8-8-4---------|
A|-4---4-4-4-6---6-6-6-4---------|
E|---------------------2---------|
 


trzalica bartrzalica bar

Dodaj komentar


Varnostna koda
Osveži

  Iskanje

config