Logo

tablatura akordi besedilo   Počasi (tab)

trzalica.com besedilo akordi tablature

Legenda ikon:


Pogoji uporabe.    

besedilo z akordi besedilo z akordi
tablature tablatura (tabulatura)
tablature tablatura za bas
tablature videolekcija

GuitarPro GutarPro (GP)
note Note (v PDF formatu)
sibelius Sibelius (SIB), itd.
..

 
   ___________________________________________________________
  |  _______________________________________________________  |
  | |                                                       | |
  | | IZVAJALEC: .............. Dan D                       | |
  | | PESEM: .................. Počasi                      | |
  | | ALBUM: .................. Katere barve je tvoj dan?   | |
  | | LETO IZIDA: ............. 2004                        | |
  | | DOMAEA STRAN: ........... www.dan-d.net               | |
  | |_______________________________________________________| |
  | |                                                       | |
  | |   Avtor transkripcije: AliAs                          | |
  | |   Domača stran transkripcije: www.trzalica.com      | |
  | |   Datum nastanka transkripcije: 29.7.2007             | |
  | |_______________________________________________________| |
  |___________________________________________________________|
 
glasba: Tomislav Jovanovič
besedilo: Tomislav Jovanovič
aranžma: DAN D in Žare Pak
 
================================================================================================
 
PRIJEMI AKORDOV:
 
H   - X 2 4 4 4 X
G#m - 4 6 6 4 4 4
C#  - X 4 6 6 6 X
E   - X 7 9 9 9 X
 
================================================================================================
www.trzalica.com    www.trzalica.com    www.trzalica.com    www.trzalica.com    www.trzalica.com
================================================================================================
 
INTRO:
 
H
 
Z wah-wahom:
e|----------------------------------------------------11-------|
H|-7-7--7-7--9-10-1010-10-----7-7--7-7--9-10-10----------------|
G|-9-9--8-8--9-9----------9---9-9--8-8--9-9-----8-----8--------|
D|----------------7-7--7---------------------7-----------------|
A|-------------------------------------------------------------|
E|-------------------------------------------------------------|
 
 
VERZ 1:
 
H
Zdaj... u tebe ugriznem bolj
Zdaj... ker te več ni dovolj
Zdaj... ker to kar mislim mislim sam
Daj... toliko kot daš ti jaz dam
 
   H
e|-11--X11--X11-11-X-11-11-|
H|-12--X12--X12-12-X-12-12-|
G|-11--X11--X11-11-X-11-11-|  se ponavlja
D|-------------------------|
A|-------------------------|
E|-------------------------|
 
 
REFREN 1:
 
G#m            C#
Počasi ... postajam bolj lahak ko vdihneš moj zrak
H  C#                               E
Počasi ... upijaš me in vem, ta trenutek te pojem
G#m              C#
Počasi ... naj traja še tako kot so rekli da lahko
H  C#                             E
Počasi ... dolga naj bo noč in vgriz bo dolg in vroč
 
 
PREHOD V VERZ 2:
H
Z wah-wahom:
e|----------------------------------------------------11-------|
H|-7-7--7-7--9-10-1010-10-----7-7--7-7--9-10-10----------------|
G|-9-9--8-8--9-9----------9---9-9--8-8--9-9-----8-----8--------|
D|----------------7-7--7---------------------7-----------------|
A|-------------------------------------------------------------|
E|-------------------------------------------------------------|
 
 
VERZ 2:
 
H
Zdaj... v dušo griznem bolj
Zdaj... obrišem kri in znoj
Zdaj... ker to kar mislim misliš ti
Daj... kar je v meni v tebi spi
 
   H
e|-11--X11--X11-11-X-11-11-|
B|-12--X12--X12-12-X-12-12-|
G|-11--X11--X11-11-X-11-11-|  se ponavlja
D|-------------------------|
A|-------------------------|
E|-------------------------|
 
 
REFREN 2:
 
G#m            C#
Počasi ... postajam bolj lahak ko vdihneš moj zrak
H  C#                               E
Počasi ... upijaš me in vem, ta trenutek te pojem
G#m              C#
Počasi ... naj traja še tako kot so rekli da lahko
H  C#                             E
Počasi ... dolga naj bo noč in vgriz bo dolg in vroč
 
 
SOLO:
 
Bridge:
G#5
C#5   H5   C#5   E5
 
Solo:
e|---------------------------------------------------|
H|---------------------------------------------------|
G|-13----15-16-----15-13----11-----9------6----9-----|  > tabulatura prikazuje prijeme,
D|---------------------------------------------------|    ki jih morate hitro strumati.
A|-11----13-14-----13-11----9------7------4----7-----|
E|---------------------------------------------------|
 
 
REFREN 3:
 
G#m            C#
Počasi ... postajam bolj lahak ko vdihneš moj zrak
H  C#                               E
Počasi ... upijaš me in vem, ta trenutek te pojem
G#m              C#
Počasi ... naj traja še tako kot so rekli da lahko
H  C#                             E
Počasi ... dolga naj bo noč in vgriz bo dolg in vroč
 


trzalica bar

trzalica bar

Template Design © Joomla Templates | GavickPro. All rights reserved.