tablatura akordi besedilo   Pri filozofiji (tab)

trzalica.com besedilo akordi tablature

Legenda ikon:


Pogoji uporabe.    

besedilo z akordi besedilo z akordi
tablature tablatura (tabulatura)
tablature tablatura za bas
tablature videolekcija

GuitarPro GutarPro (GP)
note Note (v PDF formatu)
sibelius Sibelius (SIB), itd.
..

          ___________________________________________________________
         |  _______________________________________________________  |
         | |                                                       | |
         | | IZVAJALEC: .............. Anavrin                     | |
         | | PESEM: .................. Pri filozofiji              | |
         | |_______________________________________________________| |
         | |                                                       | |
         | |  Avtor transkripcije: AliAs                           | |
         | |  Domača stran transkripcije: www.trzalica.com       | |
         | |  Datum nastanka transkripcije: 23.12.2007             | |
         | |_______________________________________________________| |
         |___________________________________________________________|

 

================================================================================================

 

LEGENDA ZNAKOV:
   X = Muffled
       ...= hiter picking
   p = pull off
   h = hammer on
   / = slide up
   \ = slide down
   f = bend za cel ton

 

PRIJEMI POWER AKORDOV:
   A5  - 5 7 7 X X X
   A#5 - 1 1 3 X X X
   C5  - 3 3 5 X X X
   D5  - 5 5 7 X X X
   F5  - 1 3 3 X X X
   G5  - 3 5 5 X X X

 


================================================================================================
www.trzalica.com    www.trzalica.com    www.trzalica.com    www.trzalica.com    www.trzalica.com
================================================================================================

 


VERZ 1:

 

Miren kot kamen na stolu sedim
Išcem resnico a je ne dobim
Ubijam s pogledom nic mi ni prav
Da Platon je v glavah to sem spoznal

 

Kitara 1:
e|-------------------------------------------|
B|-------------------------------------------|
G|------9----------9---------9------7--------| -- 12x
D|---11---11----11---11---11---11-----9/11-9-|
A|-0---------10---------9---------7----------|
E|-------------------------------------------|

 

Kitara 2 (s slajdom):
e|-----9-----------------------------------------12-------9----------9/10\9--------12-\10-\-9-\----------|
B|---------------14-----14/17-\15--\10-----10/12-----8/10------7/10---------10------------------7/10-----|
G|-5/6------7/9/-----------------------------------------------------------------------------------------|
D|-------------------------------------------------------------------------------------------------------|
A|-------------------------------------------------------------------------------------------------------|
E|-------------------------------------------------------------------------------------------------------|

 

e|-17\\\-7/9-----17---\12-----12/17/21-----19\-17---------------------|
B|--------------------------------------17------------17\\\-8/10------|
G|--------------------------------------------------------------------|
D|--------------------------------------------------------------------|
A|--------------------------------------------------------------------|
E|--------------------------------------------------------------------|

 


PREHOD V REFREN 1:

 

                 D5
e|----------------------------------------------------------------------------|
B|----------------------------------------------------------------------------|
G|-X-X-X-X-X-X-X--------------------------------------------------------------|
D|-X-X-X-X-X-X-X-7-7-7-7-7-7-10-10-7-7-7-7-/14-14-\7-7-7-7-7-7-7-/14-14-14-14-|
A|-X-X-X-X-X-X-X--------------------------------------------------------------|
E|-X-X-X-X-X-X-X--------------------------------------------------------------|

 

  F5          G5          A5
e|-------------------------------------------------|
B|-13---13-----15---15-----17---17-----17---17-----|
G|-15f--15f----17f--17f----19f--19f----19f--19f----|
D|-------------------------------------------------|
A|-------------------------------------------------|
E|-------------------------------------------------|

 


REFREN 1:

 

     D5             A#5     F5
   Dejanskost bivajocega?!...
        C5      A#5       D5
   Z razumom dojeti se ne da
             A#5                 F5
   Cemu sprašuješ o nastanku sveta
        C5      A#5
   Saj "Veliki Pok" je...
     D5           A#5            F5   C5    A#5
   bistvo vsega, bistvo vsega
   D5   A#5   F5       C5   A#5
   aaaauooooojeeeeihjee

 

Prehod v verz 2:
      D5      A#5        F5        C5     D5    A#5           F5                              C5     A#5
e|--------------------------------------------------------------------------------------------------------|
B|--------------------------------------------------------------------------------------------------------|
G|--------------------------------------------------------------------------------------------------------|
D|--------------------------------------------------------------------------------------------------------|
A|-3..5....7..8..7....5..3...----------3..5.....17......15.17.15.13.15.13.12.13.12-10h12p10-9/10-10-\9----|
E|---------------------------6..5..3...-------------------------------------------------------------------|

 


VERZ 2:

 

Svet ni neskoncen... idej je milijon...
Permenid žaluje kar vse je zastonj...
Mi veter je mrzel se mi samo zdi
A sem le subjekt na katerem nic ne temelji

 

Kitara 1:
e|-------------------------------------------|
B|-------------------------------------------|
G|------9----------9---------9------7--------| -- 6x
D|---11---11----11---11---11---11-----9/11-9-|
A|-0---------10---------9---------7----------|
E|-------------------------------------------|

 

Kitara 2 (z wah-wahom):
e|-9-------|
B|-10------|
G|-9-------|  -- 5x
D|---------|
A|---------|
E|---------|

 


REFREN 2:

 

     D5             A#5     F5
   Dejanskost bivajocega?!...
        C5      A#5       D5
   Z razumom dojeti se ne da
             A#5                 F5
   Cemu sprašuješ o nastanku sveta
        C5      A#5
   Saj "Veliki Pok" je...
     D5           A#5            F5   C5    A#5
   bistvo vsega, bistvo vsega
   D5   A#5   F5       C5   A#5
   aaaauooooojeeeeihjee
     D5             A#5     F5
   Dejanskost bivajocega?!...
        C5      A#5       D5
   Z razumom dojeti se ne da
             A#5                 F5
   Cemu sprašuješ o nastanku sveta
        C5      A#5
   Saj "Veliki Pok" je...

 

Kitara 2 v drugi ponovitvi s slajdom:
        3x                                   3x
e|--------------|--------------------|--------------|--------------------17///-|
B|-/15-\13-\10--|-/17-/18\17/18\17-\-|-/15-\13-\10--|-/17-/18\17/18\17-\-------|
G|--------------|--------------------|--------------|--------------------------|
D|--------------|--------------------|--------------|--------------------------|
A|--------------|--------------------|--------------|--------------------------|
E|--------------|--------------------|--------------|--------------------------|

 


BRIDGE:

 

... bistvo vsega ... bistvo vsega ... bistvo vsega

 

Ritem in akordi so isti kot v refrenu.

 


REFREN 3:
     D5             A#5     F5
   Dejanskost bivajocega?!...
        C5      A#5       D5
   Z razumom dojeti se ne da
             A#5                 F5
   Cemu sprašuješ o nastanku sveta
        C5      A#5
   Saj "Veliki Pok" je...
     D5           A#5            F5   C5    A#5
   bistvo vsega, bistvo vsega
     D5           A#5            F5   C5    A#5
   bistvo vsega, bistvo vsega

 

trzalica bar

trzalica bar

Dodaj komentar


Varnostna koda
Osveži

  Iskanje

config