tablatura akordi besedilo   Kolkor kapljic tolko let (tab)

trzalica.com besedilo akordi tablature

Legenda ikon:


Pogoji uporabe.    

besedilo z akordi besedilo z akordi
tablature tablatura (tabulatura)
tablature tablatura za bas
tablature videolekcija

GuitarPro GutarPro (GP)
note Note (v PDF formatu)
sibelius Sibelius (SIB), itd.
..

Oglej si še:

besedilo z akordi  Kol'kor kaplic, tol'ko let v1
besedilo z akordi  Kol'kor kaplic, tol'ko let v2
videolekcija Kol'kor kapljic, tol'ko let

trzalica bar

Kolkor kapljic tolko let
========================


To je poenostavljen način za igranje te pesmi, vse se igra na tretji struni.

Vrstice so ločene zaradi preglednosti, timing ugotovite po posluhu. 

Kol'kor kapljic tol'ko let,
e-|--------------------------------------------------------------------------|-
B-|--------------------------------------------------------------------------|-
G-|-0-0-0-5-2-2-2------------------------------------------------------------|-
D-|--------------------------------------------------------------------------|-
A-|--------------------------------------------------------------------------|-
E-|--------------------------------------------------------------------------|-
                                                                              
bog nam daj na svet’ živet’!
e-|--------------------------------------------------------------------------|-
B-|--------------------------------------------------------------------------|-
G-|-4-4-4-0-5-5-5------------------------------------------------------------|-
D-|--------------------------------------------------------------------------|-
A-|--------------------------------------------------------------------------|-
E-|--------------------------------------------------------------------------|-
                                                                              
Živijo, oj, živijo,
e-|--------------------------------------------------------------------------|-
B-|--------------------------------------------------------------------------|-
G-|-0-0-0-5-2-2-2------------------------------------------------------------|-
D-|--------------------------------------------------------------------------|-
A-|--------------------------------------------------------------------------|-
E-|--------------------------------------------------------------------------|-
                                                                              
živijo na svet!
e-|--------------------------------------------------------------------------|-
B-|--------------------------------------------------------------------------|-
G-|-7-5-4-0-9-7-5------------------------------------------------------------|-
D-|--------------------------------------------------------------------------|-
A-|--------------------------------------------------------------------------|-
E-|--------------------------------------------------------------------------|-
                                                                              

Izdelal: Jure Domajnko
Email: Ta e-poštni naslov je zaščiten proti smetenju. Potrebujete Javascript za pogled. (dva D-ja)
trzalica bartrzalica bar

Dodaj komentar


Varnostna koda
Osveži

  Iskanje

config